Guitaretab - guitar tabs
Song name
# A B C D E F G H I J K L M N O P Q R S T U V W X Y Z

Rolling Stones - Angie tab

Intro:

  am                       E7                         G4
e--0--0--0--3--0------------------0----------0----------------3----------
B--1--1-------------1---------------3----------3------------3---3--------
G--2--2-----------2------------1------1---1------1--------5-------5------
D--2------------------2--0---2----------2----------2---5------------5----
A--0---------------------------------------------------------------------
E--------------------------0---------------------------------------------
   ^  ^  v

   F4 F              C4    C        C/H   am
e--1--1--1--------------------------------0------------------------------
B--1--1-----1-----------------------------1------------------------------
G--3--2--------2-----------------0--------2------------------------------
D--3--3-----------3--3--3--2----------2---2------------------------------
A--------------------------3--3-----2------------------------------------
E------------------------------------------------------------------------
   ^  ^                    ^              ^

( ^ strike down / v strike up)  
G4(xx5533)   F4 (xx3311)   C4 (x10330)   C/H (x22010)


       E7    G                F4   F           C4  C  C/H  am
Angie, Angie, when will those dark clouds disappear
       E7    G              F4   F       C4  C
Angie, Angie, where will it lead us from here
        G                          dm           am  C
With no loving in our souls and no money in our coats 
          F               G
You can't say we're satisfied 
    am     E7    G           F4  F        C4  C  C/H  am
But Angie, Angie, they can't say we never tried


Angie, you're beautiful yeah, but ain't it time we said goodbye
Angie, I still love you, remember all those nights we cried
All the dreams we held so close seemed to all go up in smoke
Let me whisper in your ear
Angie, Angie, where will it lead us from here

Solo: am  E7  G  F4  F  C4  C  C/H  am  E7  G  F4  F  C4  C

Oh Angie don't you weep, all your kisses still taste sweet
I hate that sadness in your eyes
But Angie, Angiem ain't it time we said goodbye

Solo: am  E7  G  F4  F  C4  C

        G                          dm           am   C
With no loving in our souls and no money in our coats
          F              G
You can't say we're satisfied
dm                      am   dm
Angie, I still love you baby
                             am    dm
Ev'rywhere I look I see your eyes
                               am           C
There ain't a woman that comes close to you
        F              G
Come on baby, dry your eyes
am     E7    G         F4   F      C4  C  C/H
Angie, Angie, ain't it good to be alive
am     E7    G           F4  F        C4   C
Angie, Angie, they can't say we never tried
[ Tab from: http://www.guitaretab.com/r/rolling-stones/22418.html ]
Related for Angie tab
Angie chords by Rolling Stones