Rolling Stones - Miss You tab

Chords used-
Am11 Am F D5 Em Dm
E ---5----5----8----5---7----5---|
B ---5----5---10----5---8----6---|
G ---5----5---10----7---9----7---|
D ---5----7---10----7---9----7---|
A ---5----7----8----5---7----5---|
E ---5----5----8----5---7----5---|

INTRO
(Am11) (Am) (Am11) (Am) (F)
E -------------------|------------------|-----------------|
B -------------------|------------------|-----------------|
G -------7-5---------|------7-5---------|------5----------|
D --5-7-------7-5-7--|--5-7------7-5-7--|--5-7----7-------|
A -------------------|------------------|-----------------|
E -------------------|------------------|-----------------|
VERSE:
Am11 Am
I've been holding out so long
Am11 Am
I've been sleeping all alone
F
Lord I miss you
Am11 Am
I've been hanging on the phone
Am11 Am
I've been sleeping all alone
F
I want to kiss you, sometimes
CHORUS:
Am11 Am
Oooh oooh oooh oooh oooh oooh oooh
Am11 Am
Oooh oooh oooh oooh oooh oooh oooh
F
Oooh oooh oooh oooh
Am11 Am
Oooh oooh oooh oooh oooh oooh oooh
Am11 Am
Oooh oooh oooh oooh oooh oooh oooh
F
Oooh oooh oooh oooh
VERSE:
Well, I've been haunted in my sleep
You've been starring in my dreams
Lord I miss you
I've been waiting in the hall
Been waiting on your call
When the phone rings
VERSE:
It's just some friends of mine that say,
"Hey, what's the matter man?
We're gonna come around at twelve
With some Puerto Rican girls that are just
dyin' to meet you.
We're gonna bring a case of wine
Hey, let's go mess and fool around
You know, like we used to"
CHORUS-
Aaah(etc)
D5
Aaah aaah aaah aaah
BREAK:
F Em Dm
Oh everybody waits so long
F Em Dm
Oh baby why you wait so long
E E                         B
Won't you come on! Come on! B
G ----7-5-7----|
D -7--------7--|
E -------------|
VERSE: (SPOKEN)
I've been walking in Central Park
Singing after dark
People think I'm crazy
I've been stumbling on my feet
Shuffling through the street
Asking people, "What's the matter with you boy?"
Sometimes I want to say to myself
Sometimes I say
CHORUS:
Oooh oooh oooh oooh oooh oooh oooh (START TO SOLO HERE)
VERSE:
I guess I'm lying to myself
It's just you and no one else
Lord I won't miss you child
You've been blotting out my mind
Fooling on my time
No, I won't miss you, baby, yeah
Lord, I miss you child
CHORUS
Tap to rate this tab
 
# A B C D E F G H I J K L M N O P Q R S T U V W X Y Z