Song name
# A B C D E F G H I J K L M N O P Q R S T U V W X Y Z

Romantics - Rock You Up tab

Intro, Verse and Chorus

  C   C   C    F    Bb  Bb
------------------------------------------------------------|
--------------------11--11----------------------11--11------|
---------------10---10--10--------------10------10--10------|
--10--10--10---10---8---8--------10-----10------8---8-------|
--10--10--10----8----------------8------8-------------------|
--8---8---8----------------------8--------------------------|


Pre Chorus

   Bb          F          Bb         F
------------------------------------------------------------|
------------------------------------------------------------|
---3----------------------3---------------------------------|
---3-----------3----------3----------3----------------------|
---1-----------3----------1----------3----------------------|
---------------1---------------------1----------------------|


Bridge

     Eb     Bb      Eb      Bb      F       Bb       F       G

G|---8--------------8-----------------------3------------------|
D|---8------8-------8-------8-------3-------3--------3-------5-|
A|---6------8-------6-------8-------3-------1--------3-------5-|
E|----------6---------------6-------1----------------1-------3-|
Tap to rate this tab
 
# A B C D E F G H I J K L M N O P Q R S T U V W X Y Z