Song name
# A B C D E F G H I J K L M N O P Q R S T U V W X Y Z

Ron Jones - Duck Tales tab

This song is part of the childhood, and of many around the world, and itīs a very well 
composed song, catchy.
Iīve been with this song in my head for days, so I dicided to tab it. Thank you Ron 
Jones for such and wonderfull composition, itīs now part of our most intimate memories. So 
this is chords + melody. Feel free to remake , change or send sugestions. Free for all.

INTRO BASS
E|---------------------------------|
B|---------------------------------|
G|---------------------------------|
A|--2--2--2-----2-----2--2--2----2-| DACAPO
D|---------------------------------|
E|-0--0--0--0-0-----0--0--0--0-0---|


E|-0----------------------2-0--2-0-|
B|-0--------2--3--2--0----3-2--3-2-|
G|-1--1--4-----2-------2--2-1--2-1-|
A|-2-----------2----------4-2--4-2-|
D|-2-----------0----------0-2--0-2-|
E|-0------------------------0----0-|



E|-------------------0------2--4--2-|
B|-2------2----4-----2----2----4----|
G|-2----2------6--4--2--2------4----|
A|-2--2--------4-----2---------4----|
D|-x-----------x-----0---------2----|
E|-2-----------4--------------------|


E|-0-0--3-0--------------0---------0----------|
B|-0-0--3-0--------------1--3-1h3--3--3-1h3---|
G|-1-1----------------0--0---------2----------|
A|-2-2--------------0----2---------0----------|
D|-2-2----------0h2------3--------------------|
E|-0-0-0----0h3-------------------------------|

before key change
E|-------------------------2-----0h2------------------------------|
B|-2--------2----4------4--3-3-3----3-0----------4----------------|
G|-2--2-2h4-2-2--4--4h6----2----------1-1--------4----------------|
A|-2-------------4---------0----------2---4--2---4------4-6-4---4-|
D|-x-------------x--------------------2----------x--7-7-------7---|
E|-2-------------4--------------------0----------4----------------|


E|-2-2--5-2--------------2--0---0-2p0---0--|
B|-2-2--5-2--------------3----3---0---3----|
G|-3-3----------------2--2--------1--------|
A|-4-4--------------2----0--------2--------|
D|-4-4----------2h4---------------2--------|
E|-2-2-2----2h5-------------------0--------|
Tap to rate this tab
# A B C D E F G H I J K L M N O P Q R S T U V W X Y Z