Song name
# A B C D E F G H I J K L M N O P Q R S T U V W X Y Z

Ronnie Lane - How Come tab

INTRO RIFF (MANDOLIN)

e--------------------------------------------------------------|
B----7------------7-7-----------7-5----------------------------|
G------7--------7-----7-------7------7-4-----------------------|
D-----------7/9-----------7/9------------7-4-------------------|
A--------------------------------------------7-5--7/9--7--5----|
E--------------------------------------------------------------|

VERSE 1

D
How come when I cut the ace of hearts
G                          D
You always draw the ace of spades?
D
How's it when your best friend
G                          D
Brings you lillies on your birthday?

CHORUS

   A         G
How come, how come
          D
I ain't superstitious, but these things I seen
   A         G
How come, how come
             D
I ain't a superstitious fella, but it worries me

CHORUS END RIFF 1

e----------------------------------|
B----7-5---------------------------|
G--------7-4-----------------------|
D------------7-4-------------------|
A----------------7-5--7/9--7--5----|
E----------------------------------|

VERSE 2

D
How come when the local clergy calls
    G                                D
He tells me that you shouldn't wear black?

What kind of bread are you gonna bake
           G                     D
With that hemlock in your spice rack?

CHORUS

    A        G
How come, how come
           D
I ain't superstitious, but these things I seen
    A        G
How come, how come
             D
I ain't a superstitious fella, but it worries me


SOLO

G   G   G   G   D   D

G   G   A   A   D   D

G   G   G   G   D   D

G   G   A   A

VERSE 3

D
The spider's run, the cobweb's gone
        G                         D
Did you eat it when the moon was new?

I drowned your cat, what do you say about that?
          G               D
I've even broken up your broom

CHORUS

   A          G
How come, how come
           D
I ain't superstitious, but these things I seen
   A         G
How come, how come
            D
I ain't a superstitious fella, but it worries me

CHORUS END RIFF

e----------------------------------|
B----7-5---------------------------|
G--------7-4-----------------------|
D------------7-4-------------------|
A----------------7-5--7/9--7--5----|
E----------------------------------|

CHORUS

   A          G
How come, how come
           D
I ain't superstitious, but these things I seen
   A         G
How come, how come
            D
I ain't a superstitious fella, but it worries me

outro

G   G   G   G   D
Tap to rate this tab
 
# A B C D E F G H I J K L M N O P Q R S T U V W X Y Z