Song name
# A B C D E F G H I J K L M N O P Q R S T U V W X Y Z

Rookiez Is Punkd - In My World tab

IN MY WORLD-ROOKiEZ is PUNK'D
AO NO EXORCIST OP2
TABBED BY KYUR!
Drop C# TUNING





E|-----------------------------|
B|-----------------------------|
G|-----------------------------|(2x)
D|-----------0--0--0--0--0--0--|
A|--0--3--5--0--0--0--0--0--0--|
E|-----------0--0--0--0--0--0--|

E|---------------------------------------------------------------------|
B|---------------------------------------------------------------------|
G|---------------------------------------------------------------------|
D|-----------8--8--8--8--8--8--8--8--10--10--10--10--7--7-----------0--|
A|--0--3--5--8--8--8--8--8--8--8--8--10--10--10--10--7--7--0--3--5--0--|
E|-----------8--8--8--8--8--8--8--8--10--10--10--10--7--7-----------0--|

E|-------------------------|
B|-------------------------|
G|--------3--3--3--3--3--3-|check song for strumming pattern
D|--0--0--3--3--3--3--3--3-|
A|--0--0--1--1--1--1--1--1-|
E|--0--0-------------------|

E|-15p13h15p13h15p13h15p13h15p13---------------------------|
B|---------------------------------------------------------|(2x)
G|---------------------------------------------------------|
D|---------------------------------------------------------|
A|---------------------------------------------------------|
E|---------------------------------------------------------|

E|--13p12h13p12h13p12h13p12--|
B|---------------------------|
G|---------------------------|
D|---------------------------|
A|---------------------------|
E|---------------------------|


E|-----------------------------------------------------|
B|-----------------------------------------------------|
G|--7--3--10--5--7--3--10--9--3--5--7--9--10--3--5--6--| (2x) check song for strumming pattern
D|--7--3--10--5--7--3--10--9--3--5--7--9--10--3--5--6--|
A|--5--1--8---3--5--1--8---7--1--3--5--7--8---1--3--4--|
E|-----------------------------------------------------|

E|--------------------------------|
B|--6--6--6--6--6--6--6--6--------|
G|--------------------------------|
D|--------------------------------|
A|--------------------------------|
E|--------------------------------|

E|-----
B|-----
G|-----check song for strumming pattern
D|--0--
A|--0--
E|--0--


E|--------|
B|--------|
G|--3--5--|
D|--3--5--|
A|--1--3--|
E|--------|

well props to the internet I just felt like this song should be easyer to find
Tap to rate this tab
 
# A B C D E F G H I J K L M N O P Q R S T U V W X Y Z