Song name
# A B C D E F G H I J K L M N O P Q R S T U V W X Y Z

Rooney - Here Today Gone Tomorrow tab

Band: Rooney
Song: Here Today, Gone Tomorrow
Hey, This is my first tab, and i think it is pretty good. There might be mistakes in the 
and the chorus, but just try what sounds right.
Standard Tuning


part the goes "oh oh oh oh, I love You"
E ----------------------------------------------------------------|
B ----------------------------------------------------------------|
G ----------------------------------------------------------------|
D 2222222222222222666666666666666622222222222222226666666644444444|
A 2222222222222222666666666666666622222222222222226666666644444444|
E 0000000000000000444444444444444400000000000000004444444422222222|

E ----------------|
B ----------------|
G ----------------|
D 2222222222222222|     repeat 2x
A 2222222222222222|
E 0000000000000000|

Chorus
E ----------------|
B ----------------|
G ----------------|
D 6666444466666666|       repeat 3x
A 6666444466666666|
E 4444222244444444|

E -------------------|
B -------------------|
G -------------------|
D 4-----------6------|     let these notes ring
A 4-----------6------|
E 2-----------4------|

solo

E ----------------------------------------------------------------|
B ----------------------------------------------------------------|
G ----------------------------------------------------------------|
D -----------11-13-11--------------11-13-11-----16-13----16-13-11-|
A 11----11-14--------14-11----11-14--------14-11------------------|
E ----------------------------------------------------------------|

E ---------------------------------------------------------------|
B ---------------------------------------------------------------|
G ---------------------------------------------------------------|
D ---------------------------------------------------------------|
A ---13-11-------------------------------------------------------|
E ---------14--13--13--11----------------------------------------|
Tap to rate this tab
# A B C D E F G H I J K L M N O P Q R S T U V W X Y Z