Song name
# A B C D E F G H I J K L M N O P Q R S T U V W X Y Z

Rooney - Iron Man Theme tab

|=============================|
|     Iron Man - Armoured     |
|       Adventures Theme      |
|           Rooney            |
|============================ |

Hey guys :)
This isn't a perfect tab, it's pretty tricky to work out :S
It's the first song I've tabbed that has two guitars, and it took a lot
longer than I expected.
Still working on the solo (I'm tabbing the full thing), but I'll update the tab as 
soon as I'm satisfied with it
(within the next week hopefully) :)
I've transcribed most of the keyboard to guitar (I mean, why not?).


With the formalities out of the way,
Enjoy!! :D


Please rate and comment!

Standard Tuning (eBGDAE)
p = pull off
b = bend
h = hammer on/off
/ = slide
~ = vibrato/whammy


****

Intro
Keyboard starts song with:
e|--------19-|
B|---12------|
G|-----------|
D|-----------|
A|-----------|
E|-----------|

Guitar 1  x2
e|-------------------------------------------------------------------|
B|-------------------------------------------------------------------|
G|-------------------------------------------------------------------|
D|--4-4-4-4-4-4-7-7-4-4-4-4-4-4-9-9-4-4-4-4-4-4-7-9-10-10101010-9-10-|
A|--4-4-4-4-4-4-7-7-4-4-4-4-4-4-9-9-4-4-4-4-4-4-7-9-10-10101010-9-10-|
E|--2-2-2-2-2-2-5-5-2-2-2-2-2-2-7-7-2-2-2-2-2-2-5-7-8--8-8-8-8--7-8--|
     PM|-------|       |-------|       |-------|      |--------|

Keyboard
e|--8-9----5--7-5--8-9-8-5---5-|-8-9----5--7-5-8--7-8-7-5-7-9----|
B|------7------------------7---|-----7---------------------------|
G|-----------------------------|---------------------------------|
D|-----------------------------|---------------------------------|
A|-----------------------------|---------------------------------|
E|-----------------------------|---------------------------------|


****

Verse
Guitars 1 & 2
e|----------------------------------------------|
B|----------------------------------------------|
G|----------------------------------------------|
D|--4-4-----4-4-----4-4---7-9-10-10101010-9-10--|
A|--4-4-----4-4-----4-4---7-9-10-10101010-9-10--|
E|--2-2-----2-2-----2-2---5-7-8--8-8-8-8--7-8---|
Drums  1 2 3   1 2 3   1 2    PM|--------|


****

Chorus (Not too sure about this one, but I did my best)
Guitar 1
e|--------------------------------------------------------|
B|--------------------------------------------------------|
G|--11-11-11-11-11-11-9-9-7-7-7-7-7-7-7-7-4-4-4-4-4-4-4-4-|
D|--11-11-11-11-11-11-9-9-7-7-7-7-7-7-7-7-4-4-4-4-4-4-4-4-|
A|--9--9--9--9--9--9--7-7-5-5-5-5-5-5-5-5-2-2-2-2-2-2-2-2-|
E|--------------------------------------------------------|

e|------------------------------------------|
B|------------------------------------------|
G|------------------------------------------|
D|--4-4-4-4-7-7-7-7----4-4---2-4-4---2-4-4--|
A|--4-4-4-4-7-7-7-7----4-4---2-4-4---2-4-4--|
E|--2-2-2-2-5-5-5-5----2-2---0-2-2---0-2-2--|
"He's Iron.. Man!"

e|-------------------|
B|-------------------|
G|-------------------|
D|--2-4-4---2-4-4----|
A|--2-4-4---2-4-4----|
E|--0-2-2---0-2-2----|
"Iron.. Man!"


Guitar 2
e|----------------------------------------------------------|
B|----------------------------------------------------------|
G|--11-11-xxxx-11-11-9-9-7-7-xxxx-7-7-xx-7-4-4-xxxx-4-4-x-4-|
D|--11-11-xxxx-11-11-9-9-7-7-xxxx-7-7-xx-7-4-4-xxxx-4-4-x-4-|
A|--9--9--xxxx-9--9--7-7-5-5-xxxx-5-5-xx-5-2-2-xxxx-2-2-x-2-|
E|----------------------------------------------------------|

e|-----------------------------------------|
B|-----------------------------------------|
G|-----------------------------------------|
D|--4-------7---------4-4---2-4-4---2-4-4--|
A|--4-------7---------4-4---2-4-4---2-4-4--|
E|--2-------5---------2-2---0-2-2---0-2-2--|

e|-------------------|
B|-------------------|
G|-------------------|
D|--2-4-4---2-4-4----|
A|--2-4-4---2-4-4----|
E|--0-2-2---0-2-2----|


Keyboard (It's pretty hard to work out, but it's along these lines)
e|------------------------------------------|
B|--14-----15----17---15-------14------12---|
G|------------------------------------------|
D|------------------------------------------|
A|------------------------------------------|
E|------------------------------------------|


****

Both Guitars play Intro once

Play verse (twice, I think)

Play Chorus twice

Play Intro twice

****

Solo
(This area is under construction)


****

Outro
Guitars 1 & 2
e|------------------------------------------|
B|------------------------------------------|
G|------------------------------------------|
D|--4-4-4-4-7-7-7-7----4-4---2-4-4---2-4-4--|
A|--4-4-4-4-7-7-7-7----4-4---2-4-4---2-4-4--|
E|--2-2-2-2-5-5-5-5----2-2---0-2-2---0-2-2--|
"He's Iron.. Man!"

e|-------------------|
B|-------------------|
G|-------------------|
D|--2-4-4---2-4-4----|
A|--2-4-4---2-4-4----|
E|--0-2-2---0-2-2----|
"Iron.. Man!"

e|------------------------------------------|
B|------------------------------------------|
G|------------------------------------------|
D|--4-4-4-4-7-7-7-7----4-4---2-4-4---2-4-4--|
A|--4-4-4-4-7-7-7-7----4-4---2-4-4---2-4-4--|
E|--2-2-2-2-5-5-5-5----2-2---0-2-2---0-2-2--|
"Iron.. Man!!!"

e|-------------------|
B|-------------------|
G|-------------------|
D|--2-4-4---2-4-4----|
A|--2-4-4---2-4-4----|
E|--0-2-2---0-2-2----|
"Iron.. Man!"


Keyboard ends with
e|--------19-|
B|---12------|
G|-----------|
D|-----------|
A|-----------|
E|-----------|

****

Hope that helped! Don't forget to rate and comment ;)
Tap to rate this tab
# A B C D E F G H I J K L M N O P Q R S T U V W X Y Z