Song name
# A B C D E F G H I J K L M N O P Q R S T U V W X Y Z

Rootdown - All I Wanna Do chords

Highlighted       Show chord diagrams
Song: All I Wanna Do
Artist: Rootdown
Album: Tidal Wave (2011)

INTRO
E----------------------------------------------------|
B---------13-16-14-13-11--------------13-------------|
G---13-15-----------------13----13-15---15-13-12-13--| x2
D----------------------------------------------------|
A----------------------------------------------------|
E----------------------------------------------------|

VERSE 1
Em7                             C7
  the sun is sweet the shade is soft and your kiss is mine
   G7                     D                      Em7
  i wanna kick it like we did in the summertime
      C7                G7               D
  yea when you were mine  i gotta feelin it will work out
                Em7
  i think you know what im wanting
            C7
  im wantin someone not nothing
                 G7
  because theres nothing that can get
             D
  in between me and your lovin
           Em7
  Im comin back and im runnin and runnin
       C7
  baby im rushin so hush
       G7
  wont ya understand
          D
  this is way more than a crush

CHORUS
            Em              C
all I wanna do is hang with you
     G                 D
everyday in the sun or shade
            Em            C
all I wanna do is be with you
            G      D
yea be with you oh yea

VERSE 2    -same as verse 1-
baby we can do whatever you want
whenever youd like if I was in your world
and you would have whatever youd like
maybe its tonight cuz you are my girl
my baby hear me knockin and knockin
we kept on talking and talking
about how awesome this love is
yea the one that we got in
and I dont want us to stop
cuz of the web that were caught in
is too good to be true baby I love you

CHORUS x2

SOLO
E--------------------------------------------------------------------|
B----15-13-15-13-------15-13-15-13-----------------------------------|
G-13-------------15-13-------------13-12--------13/15-15-15-15-13-13-|   x2
D--------------------------------------------------------------------|
A--------------------------------------------------------------------|
E--------------------------------------------------------------------|

BRIDGE
Em Em       C C          G       D
      maybe     youll be goin my way
                 Em Em                    C C
and youll be mine      and I wont be blind
             G
wanna see ya shine like the time that
   D
we find blue skies in the summertime

Em Em       C C          G       D
      maybe     youll be goin my way
                 Em Em                    C C
and youll be mine      and I wont be blind
             G
wanna see ya shine like the time that
   D
we find blue skies in the summertime

Em  C  G   D            Em  C  
G          D
           in the summertime   summertime summertime

CHORUS x2

OUTRO (same as intro)
E----------------------------------------------------|
B---------13-16-14-13-11--------------13-------------|
G---13-15-----------------13----13-16---16-13-12-13--| x2
D----------------------------------------------------|
A----------------------------------------------------|
E----------------------------------------------------|

Chords Used
Em7   779787
C7    8108988      (A string is 10th fret)
G7    353433
D     000232
G     320033
C     032010
Em    022000
Tap to rate this tab
 
# A B C D E F G H I J K L M N O P Q R S T U V W X Y Z