Guitaretab - guitar tabs
Song name
# A B C D E F G H I J K L M N O P Q R S T U V W X Y Z

Rory Gallagher - Follow Me tab

Rory Gallagher - Follow me
e|--------------------------------------|
b|--------------------------------------|
g|------------------------------10-x-10-|
D|------------10--------10------10-x-10-|
A|------------10--------10------8--x-8--|
E|-15/8--8-8--8----8-8--8---------------|
[ Tab from: http://www.guitaretab.com/r/rory-gallagher/184155.html ]
 |------------------------------------------------------------|
 |------------------------------------------------------------|
 |----------------------8-x-8-----------------------6-x-6-----|
 |-------8-------8------8-x-8--------6-------6------6-x-6-----|
 |-------8-------8------6-x-6--------6-------6------4-x-4-----|
 |--6-6--6--6-6--6--------------4-4--4--4-4--4----------------|

 |------------------------------------|  Tablature Legend
 |------------------------------------|  / - Slide down  
 |-----------------------------------*|  --|
 |-----------------------------------*|  -*| - Repeat
 |------------------------------------|  -*|
 |--3-4-3-4-3-4-3-4-3-4-3-4-3-4-3-4---|  --|
Related for Follow Me tab
Advertisement will be closed in 10 seconds