Song name
# A B C D E F G H I J K L M N O P Q R S T U V W X Y Z

Rory Gallagher - Shin Kicker tab

Title: Shin Kicker
Year: 1978
Album: Photo Finish


Intro:                                                           E

E:-------------------------------------------------------------------|
B:-------------------------------------------------------------------|
G:---------------------------------------------------------------999-|
D:---------9(h)-11(p)-9---------9(h)-11(p)-9--------9(h)-11(p)-9-999-| X3
A:--9(h)-11-------------9(h)-11--------------9(h)-11-------------777-|
E:-------------------------------------------------------------------|

E:----------------------------------------------------|
B:-------------------------------------------12-------|
G:-------------------------------------------11(bend)-|
D:---------9(h)-11(p)-9---------9(h)-11(p)-9----------| X 1
A:--9(h)-11-------------9(h)-11-----------------------|
E:----------------------------------------------------|

Vers:

             E                                       B
E:----------------------------------------------------------------------|
B:----------------------------------------------------------------------|
G:----------------------------------------------------------------------|
D:-----------9-9-11-9--9-9-11-9--9-9-11-9--9-9-11-9---------------------|
A:-----------7-7-7--7--7-7-7--7--7-7-7--7--7-7-7--7--9-9-11-9--9-9-11-9-|
E:---------------------------------------------------7-7-7--7--7-7-7--7-|
"Well it's a shin kick morning...."

                       C#5            B5  E
E:---------------------------------------------------------------------|
B:---------------------------------------------------------------------|
G:---------------------------------------------------------------------|
D:---------------------11-11--11-11-11-9--9-9-11-9--9-9-11-9--9-9-11-9-|
A:-9-9-11-9--9-9-11-9--11-11--11-11-11-9--7-7-7--7--7-7-7--7--7-7-7--7-|
E:-7-7-7--7--7-7-7--7--9--9---9--9--9--7-------------------------------|

E:---------------------|
B:---------------------|
G:---------------------|
D:-9-9-11-9------------| X3
A:-7-7-7--7------------|
E:---------------------|

Bridge:
           D5                                 A5
E:----------------------------------------------------------------|
B:--------------------------------------------------5-5-5-5-------|
G:---------7----------------------------------------7b7b7b7b------|
D:---------7----------------------------------7-------------------|
A:---------5----------------------------------7-------------------|
E:--------------------------------------------5-------------------|

"Well I got to find a town that's got some action,

     D5                              A5         B5
E:----------------------------------------------------|
B:----------------------------------------------------|
G:---7------------------------------------------------|
D:---7-------------------------------7----------9-----|
A:---5-------------------------------7----------9-----|
E:-----------------------------------5----------7-----|

I've got to find a place that's open late right away"

Solo:
The solo is pretty easy to learn if you listen to it! Or perhaps watch the 1979 live 
from Montreux on youtube to get some inspiration.
The chords are the same as the vers: E, B, C#5.


The Coda/outro-sort-of-thing is simply C#,B and E.
Listen to the song and you'll get it ;-)

Enjoy!


The form of the song:
Intro
Vers x3
Bridge
Solo
Bridge
Vers x3
Solo
Outro
Tap to rate this tab
# A B C D E F G H I J K L M N O P Q R S T U V W X Y Z