Song name
# A B C D E F G H I J K L M N O P Q R S T U V W X Y Z

Rory Gallagher - Shin Kicker tab

This is the Intro, verse and chorus to the song Shin Kicker.  The tab is based on the 
"Stage Struck/" live version, as it was the only version I could find.

The tuning is in standard but I think Rory tunes the strings slightly sharp for this one.


INTRO

E------------------------------------|
B------------------------------------|
G------------------------------------|
D--7-7-9-7--7-7-9-7--7-7-9-7--7-7-7--|
A--7-7-7-7--7-7-7-7--7-7-7-7--7-7-7--|
E------------------------------------| X3

E------------------------|
B------------------------|
G--------------------11b-|
D--7-7-9-7--7-7-9-7---9b-|
A--7-7-7-7--7-7-7-7------|
E------------------------| x1


VERSE

E--------------------------------------|
B--------------------------------------|
G--------------------------------------|
D--7-7-9-7--7-7-9-7--7-7-9-7--7-7-9-7--|
A--7-7-7-7--7-7-7-7--7-7-7-7--7-7-7-7--|
E--------------------------------------|

E--------------------------------------|
B--------------------------------------|
G--------------------------------------|
D--------------------------------------|
A--7-7-9-7--7-7-9-7--7-7-9-7--7-7-9-7--|
E--7-7-7-7--7-7-7-7--7-7-7-7--7-7-7-7--|

E--------------------------------------------------------------|
B--------------------------------------------------------------|
G--------------------------------------------------------------|
D---------------------------------9--9-9--7--7-7--6--6-6--6-6--|
A-11-11-11-11-11-11-11-11--9-9-9--7--7-7--7--7-7--7--7-7--7-7--|
E--9--9--9--9--9--9--9--9--7-7-7-------------------------------|

This the majority of the song, then there is a kinda chorus just before rory launches 
into the solo.

CHORUS

D5                                    A5
"I got to find a town, thats got some action"

   D5                              A5          B5
"I got to find a place, stays open late, RIGHT AWAY!"

After this part is the solo which i havent got yet, but the part playing underneath the 
solo is just the verse again, after solo the above chorus
is played again then back into the verse etc.  These are the only rythym parts used in 
the song.

All opinions welcome at Gelliott127@hotmail.com or my UG profile Garizard1.

LONG LIVE RORY GALLAGHER!!!!!
Tap to rate this tab
# A B C D E F G H I J K L M N O P Q R S T U V W X Y Z