Song name
# A B C D E F G H I J K L M N O P Q R S T U V W X Y Z

Rory Gallagher - Bad Penny tab

The other tab that had this solo wasn't accurate, this should be closer...

e-----------------------------------|
B--------6-8-8b10-8p6p5-5-6-5h6p5---|
G--7p5h7-------------------------7--|
D-----------------------------------|
A-----------------------------------|
E-----------------------------------|

e-----------13-15-15b17-15p13p12-12-13-12h13p12----|
B--15p13h15------------------------------------15--|
G--------------------------------------------------|
D--------------------------------------------------|
A--------------------------------------------------|
E--------------------------------------------------|


e----15b17-15p13--15b17-19p15b17-19p15b17-15b17-15p13p12--13--13--15b----|
B--15-----------15--------------------------------------15--15--15---15--|
G------------------------------------------------------------------------|
D------------------------------------------------------------------------|
A------------------------------------------------------------------------|
E------------------------------------------------------------------------|
Tap to rate this tab
# A B C D E F G H I J K L M N O P Q R S T U V W X Y Z