Song name
# A B C D E F G H I J K L M N O P Q R S T U V W X Y Z

Rory Gallagher - Philby chords

Highlighted       Show chord diagrams
Here is the Intro, Main Riff and bridge to the song Philby from the Top Priority album.  
Ill post the solo when I have it, (I nearly have it)


INTRO/MAIN RIFF


E---------------------------------|
B---------------------------------|
G----5--3---------------5-5-------|
D----5--3--6-6----6--5--5-5-------|
A----3--1--6-6----6--5--3-3-------|
E----------4-4----4--3------------|

Play this riff for the whole song except the bridge which goes like this


     G       G#     Eb     A#
E-------------------------------|
B-------------------8~----------|
G----4~------5~-----8~-----7~---|
D----5~------6~-----8~-----8~---|
A----5~------6~-----6~-----8~---|
E----3~------4~------------6~---|

G
4 o clock and nothins movin

G#
6 o clock and the daylights stiring

Eb                         A#
Mornin comes, must be movin on


G
All night long, my minds been burnin

G#                                      Eb    A#
Makes me feel such a long long way from home, home





Once again all opinions welcome at Gelliott127@hotmail.com and my UG profile Garizard1.
Tap to rate this tab
# A B C D E F G H I J K L M N O P Q R S T U V W X Y Z