Song name
# A B C D E F G H I J K L M N O P Q R S T U V W X Y Z

Rosana - Si Tu No Estas Aqui tab

-------------------------------------------------------------------------------
>                            Si Tú No Estas Aquí - Rosana (http://www.rosana.net/)
-------------------------------------------------------------------------------

Tuning: EADGBe

e|--------0-------2/3-|-----------3-----|-----------------0----------------------|
B|------3---2---------|-------3-----3---|-------0-----0-2------0-----------------|
G|----2-------2-------|---------4-----4-|-----2-----2--------2---2---------------|
D|--0-----------4-----|-----5-----------|---2-----2------------------------------|
A|--------0-----------|---5-------------|-0--------------------------------------|
E|----------2------/3-|-3---------------|----------------------------------------|

      No quiero estar sin ti,              Si tú no estas aquí me sobra el aire,
e|-----------0------------|-----------3-----|-------------0----------|-------0/2---3/2--------|
B|--------3-----2---------|-------3-----3---|-------0-----------0----|-----3----------3-------|
G|-----2-----------2------|---------4-------|----------2-----2-----2-|---2-------2-----2------|
D|--0-----------------4---|-----5-----------|----2-------------------|-0----------4-----------|
A|-----------0------------|---5-----------5-|-0----------------------|------------------0/2---|
E|--------------2-------2-|-3---------------|------------------------|------------------------|

        No quiero estar asi,                Si tú no estas la gente se hace nadie.
e|-----------0------------|-----------3-----|-------------0-----------|-------0/2---3/2--------|
B|--------3-----2---------|-------3-----3---|-------0-----------0-----|-----3----------3-------|
G|-----2-----------2------|---------4-------|----------2-----2-----2--|---2-------2-----2------|
D|--0-----------------4---|-----5-----------|----2--------------------|-0----------4-----0-----|
A|-----------0------------|---5-----------5-|-0-----------------------|------------------------|
E|--------------2-------2-|-3---------------|-------------------------|-------------------3----|

   Si tú no estas aquí no sé               Que diablos hago amándote
e|----------2-------------|-----------3-----|---------0-------|-------0/2---3/2--------|
B|-------------2--2-------|-------3-----3---|-----0-------0---|-----3----------3-------|
G|-----2-------------2----|---------4-------|-------2---2---2-|---2-------2-----2------|
D|--------4---------------|-----5-----------|---2-------------|-0----------4-----0-----|
A|------------------------|---5-----------5-|-0---------------|------------------------|
E|--2-------------------2-|-3---------------|-----------------|--------------------3---|

   Si tú no estas aquí sabrás               Que dios no va a entender por qué te vas
e|-----------2-------------|-------------3-----|-0----------------------------------|
B|--------------2--2-------|-------3-------3---|-2----------------------------------|
G|-----2--------------2----|---------4---------|-2----------------------------------|
D|--------4----------------|-----5-------------|-2----------------------------------|
A|-------------------------|---5-------------5-|-0----------------------------------|
E|--2--------------------2-|-3-----------------|------------------------------------|

D  F#m              G
No quiero estar sin ti
   A                   D
Si tú no estas aquí me falta el sueño
     F#m         G
No quiero andar así
   A                    D
Latiendo un corazón de amor sin dueño

   F#m                 G
Si tú no estas aquí no sé
      A               D
Que diablos hago amándote
   F#m                  G
Si tú no estas aquí sabrás
    A                                D
Que Dios no va a entender por qué te vas

D                             F#m
Derramare mis sueños si algún día no te tengo
G                    A         D
Lo más grande se hará lo mas pequeño
D                          G
Pasearé en un cielo sin estrellas esta vez
A                               F#m            B7
Tratando de entender quien hizo un infierno el paraíso
G           A
No te vayas nunca porque
D  F#m        A
No puedo estar sin ti
   A                   D
Si tú no estas aquí me quema el aire

   F#m                 G
Si tú no estas aquí no sé
      A               D
Que diablos hago amándote
   F#m                  G
Si tú no estas aquí sabrás
    A                                D
Que Dios no va a entender por qué te vas

   F#m                 G
Si tú no estas aquí no se
      A               D
Que diablos hago amándote
   F#m
Si tú no estas aquí sabrás
                    e|-----------3-----|
                    B|-------5-----3---|
                    G|---------4-------|
                    D|-----5-----------|
                    A|---5-----------5-|
                    E|-3---------------|

Que Dios no va a entender por qué te vass
e|--0--------------------------------------------------------------------|
B|--2------------------------------------------2/3-----2/3---2/3-3-------|
G|--2--------------------------------------------------------2---2-------|
D|--2----------------------------------------4-------4-------------------|
A|--0--------------------------------------2-------0---------------------|
E|--0------------------------------------------------------3-----3-------|

Si tú no estas aquí...
Tap to rate this tab
# A B C D E F G H I J K L M N O P Q R S T U V W X Y Z