Song name
# A B C D E F G H I J K L M N O P Q R S T U V W X Y Z

Rover - Aqualast tab

ROVER  Aqualast

INTRO
e--------0---------I--------0--------------------|       X2
B----1-------1---1-I-----1------1----1-----------|
G--3---3---3---3---I--2---2---2---2--------------|
D--2---2---2---2---I--2---2---2---2--------------|
A--3---3---3---3---I--0---0---0---0--------------|
E------------------I-----------------------------|




VERSE
e------0--------        ------0-------- ------0-------  -------3p0------------------|
B---1------1--1-        ----1----1--1-- ---1-----1--1-  ----1-------3p1--1----------|
G--3--3--3--3---        --2--2--2--2--- --3--3--3--3--  --2---2----2----2-----------|
D--2--2--2--2---        --2--2--2--2--- --2--2--2--2--  --2---2----2----2-----------|
A--3--3--3--3---        --0--0--0--0--- --3--3--3--3--  --0---0----0----0-----------|
E----------------       ----------------        --------------- --------------------|

e-------0-------        -------0---------       ------0-------- -----------0----|
B---0------0--0-        -----------0---0-       ---0-----0---0- -----0----------|
G--0--0--0--0---        --2-2-2--2---2---       --2--2--2--2--- --2-----2-------|
D--2--2--2--2---        --4---4--4---4---       --2--2--2--2--- --2-----2-------|
A--2--2--2--2---        --2---2--2---2---       --2--2--2--2--- --2-----2-------|
E----------------       --------------------------------        --0-----0-------|

e------3p0----------    ------0-------- ------0-------  -------3p0------------------|
B---1--------3p1--1-    ----1----1--1-- ---1-----1--1-  ----1-------3p1--1----------|
G--3--3----3----3---    --2--2--2--2--- --3--3--3--3--  --2---2----2----2-----------|
D--2--2----2----2---    --2--2--2--2--- --2--2--2--2--  --2---2----2----2-----------|
A--3--3----3----3---    --0--0--0--0--- --3--3--3--3--  --0---0----0----0-----------|
E-------------------    ----------------        --------------- --------------------|

e-------0-------        -------0---------       ------0-------- -----------0----|
B---0------0--0-        -----------0---0-       ---0-----0---0- -----0----------|
G--0--0--0--0---        --2-2-2--2---2---       --2--2--2--2--- --2-----2-------|
D--2--2--2--2---        --4---4--4---4---       --2--2--2--2--- --2-----2-------|
A--2--2--2--2---        --2---2--2---2---       --2--2--2--2--- --2-----2-------|
E----------------       --------------------------------        --0-----0-------|

CHORUS
e-----12---12---12----12---12---12---11---11-----|   X2
B--12---12----13---13---14---14---12---12--------|

A (577655) / B (799877) / C#m(91111999) / A#(466544)    X2

A(577655) ---- Am (577555)



PRE VERSE
e-----3--3---2---2---3---3-     X4      ---5---5---5---5--0------|
B--5-5-5-5-4-4-4-4-5-5-5-5---           ----5---5---5---5--0-----|
G--4---4---4---4---5---5-----           ----5---5---5---5--0-----|
D--5---5---4---4---5---5------          --7---7---7---7---2------|
A-----------------------------          --7---7---5---5---2------|
E-----------------------------          --5---5---5---5---0------|


VERSE
e------0--------        ------3p0----------     ------0-------  -------3p0---------|
B---1------1--1-        ----1------3p1--1--     ---1-----1--1-  ----1-------3p1--1-|
G--3--3--3--3---        --2--2----2----2---     --3--3--3--3--  --2---2----2----2--|
D--2--2--2--2---        --2--2----2----2---     --2--2--2--2--  --2---2----2----2--|
A--3--3--3--3---        --0--0----0----0---     --3--3--3--3--  --0---0----0----0--|
E----------------       --------------------    --------------- -------------------|

e-------0-------        -------0---------       ------0-------- -----------0----|
B---0------0--0-        -----------0---0-       ---0-----0---0- -----0----------|
G--0--0--0--0---        --2-2-2--2---2---       --2--2--2--2--- --2-----2-------|
D--2--2--2--2---        --4---4--4---4---       --2--2--2--2--- --2-----2-------|
A--2--2--2--2---        --2---2--2---2---       --2--2--2--2--- --2-----2-------|
E----------------       --------------------------------        --0-----0-------|

e------3p0----------    ------0-------- ------0-------  -------3p0------------------|
B---1--------3p1--1-    ----1----1--1-- ---1-----1--1-  ----1-------3p1--1----------|
G--3--3----3----3---    --2--2--2--2--- --3--3--3--3--  --2---2----2----2-----------|
D--2--2----2----2---    --2--2--2--2--- --2--2--2--2--  --2---2----2----2-----------|
A--3--3----3----3---    --0--0--0--0--- --3--3--3--3--  --0---0----0----0-----------|
E----------------       ----------------        --------------- --------------------|

e-------0-------        -------0---------       ------0-------- -----------0----|
B---0------0--0-        -----------0---0-       ---0-----0---0- -----0----------|
G--0--0--0--0---        --2-2-2--2---2---       --2--2--2--2--- --2-----2-------|
D--2--2--2--2---        --4---4--4---4---       --2--2--2--2--- --2-----2-------|
A--2--2--2--2---        --2---2--2---2---       --2--2--2--2--- --2-----2-------|
E----------------       --------------------------------        --0-----0-------|

CHORUS
e-----12---12---12----12---12---12---11---11-----|   X2
B--12---12----13---13---14---14---12---12--------|

A (577655) / B (799877) / C#m(91111999) / A#(466544)    X2

A(577655) ---- Am (577555)



OUTRO
e-----3--3---2---2---3---3-     X6      ---5---5---5---5--0------|
B--5-5-5-5-4-4-4-4-5-5-5-5---           ----5---5---5---5--0-----|
G--4---4---4---4---5---5-----           ----5---5---5---5--0-----|
D--5---5---4---4---5---5------          --7---7---7---7---2------|
A-----------------------------          --7---7---5---5---2------|
E-----------------------------          --5---5---5---5---0------|
Tap to rate this tab
# A B C D E F G H I J K L M N O P Q R S T U V W X Y Z