Song name
# A B C D E F G H I J K L M N O P Q R S T U V W X Y Z

Rowwen Heze - Peel In Brand chords

Highlighted       Show chord diagrams
Peel in Brand – Rowwen Heze        

RIFF INTRO
    G              |x4    
e|---3-------------|
B|------0----0-----|
G|-------------0---|
D|-----------------|
A|--------2--------|
E|-3---------------|

COUPLET (RIFF I)
                    |x4                          |              |x5
        G           |       Em                   |              |
e|-----3------------|---------------(0)---(0)----|---------3----|-------------3|
B|--------0-----0---|----------------0-----0-----|---0----------|--------------|
G|----------------0-|-----------0--------0-------|-----0--------|---------0----|
D|------------------|--------------2-------------|--------------|--------------|
A|-----------2------|----------------------------|-------2------|-----------2--|
E|-3----------------|--3--2--0--------0----------|-3------------|-3--2--0------|
etc.

REFREIN (RIFF II)
    F                 G          C            F        
e|---1--------1--------3----------0-----|---1--------1--------1-----------|
B|-----1--------1--------0---------1----|-----1--------1---------1--------|
G|-------2--------2--------0----------0-|-------2--------2---------2------|
D|--------------------------------------|---------------------------------|
A|-----------------------------3--------|---------------------------------|
E|-1--------1--------3------------------|-1--------1--------1-------------|

   G          C              Am                  
e|----3----------0------|-0--------0---------|  etc.
B|-------0---------1----|---0h1------0h1-----|
G|----------0---------0-|----2--------2------|
D|----------------------|--------------------|
A|-------------3--------|0-------0-----------|
E|-3--------------------|--------------------|


   Intro: G (RIFF INTRO)

G     (RIFF I)
Toen ik nog hiel klein was
                        Em
en van 't leave niks begreep
                                G
Allien moar speulde, oot en sliep

G   (RIFF I)
Toen ik nog zo klein was
                                Em
Daat ik op de tiene mos goan stoan
                        G
Um te kieke naar de moan

G   (RIFF I)
Witte streepe in de lucht
                           Em
Ge kneep ow oege half dicht
                        G
Elke wolk was 'n gezicht



(RIFF II) F
En ’s aoves laat
      G
De hoar nog naat
        C
Nog efkes en naar bed
       F
De raam wied oap,
G
en genne sloap
        C               Am
En d’n hemel was vuurroej
C    G                   F
Mist hing op het land
F                           G                       C
’s oaves laat, doa stong de Peel in brand

G      Ge kost oren droeme
   Em  Ge waart de baas van iederien
    G  Vocht met de sterksten allien

G      Langoet liggen in 't graas
   Em  Gerook d’n asfalt en d’n zwaai
    G  Als 't pas geregend haai

G      Ge had het maar met ien ding druk
   Em  Groeter weare, ma waat ge ok deet
    G  Echt veul alder woardt te neet

(RIFF II) F
En ’s aoves laat
      G
De hoar nog naat
        C
Nog efkes en naar bed
       F
De raam wied oap,
G
en genne sloap
        C               Am
En d’n hemel was vuurroej
C    G                   F
Mist hing op het land
F                           G                       C
’s oaves laat, doa stong de Peel in brand

Solo (RIFF I+RIFF II)
G Em G (2x)
F G C F
F G C Am
C G F
F C G

Refrein 1x
Tap to rate this tab
 
# A B C D E F G H I J K L M N O P Q R S T U V W X Y Z