Song name
# A B C D E F G H I J K L M N O P Q R S T U V W X Y Z

Roy Harper - Feeling All The Saturday tab

Capo on 3rd fret (Actual Key Bb major)
Chords:
G:    320033
D/f#: 200232
C:    x32010
C/b:  x20010
Am:   x02210

Intro:
  G (4 times)
e|3---------------|
B|----------3-----|
G|------0---------| 
D|----0-------0---|<-thumb
A|----------------|
E|3-------3-------|<-thumb

Verse:
  G                D/f#    G                         D/f#
e|3---------------|2-----------3---|----------------|----------------|
B|----------3-----|----------------|------3---------|------3---------|
G|------0---------|------0---------|--0-------0-----|--2-------2-----|
D|----0-------0---|----0-------0---|----0-------0---|----0-------0---|
A|----------------|----------------|----------------|----------------|
E|3-------3-------|2-------3-------|3-------3-------|2-------2-------|
  I've..  walkin.. over..  place    now...  back a - gain 

  G                D/f#    G                D/f#     G
e|3---------------|2-----------3---|----------------|----3-----------|
B|----------3-----|----------------|------3-------3-|------0---------|
G|------0---------|------0---------|--0-------2-----|--0-------0-----|
D|----0-------0---|----0-------0---|----0-------0---|----0-------0---|
A|----------------|----------------|----------------|----------------|
E|3-------3-------|2-------3-------|3-------2-------|3-------3-------|
  I've..  smilin.. over..  face I   wonder. hell I been

  D/f#             G                D/f#             G
e|2---------------|----3-----------|2---------------|----3-----------|
B|----------3-----|----------------|----------3-----|----------------|
G|------2-------0-|----------0-----|------2-------0-|----------0-----|
D|----0-------0---|----0-------0---|----0-------0---|----0-------0---|
A|----------------|----------------|----------------|----------------|
E|2-------2-------|3-------3-------|2-------2-------|3-------3-------|
  Wont ya take me  by the hand    divided   by  my   brain       I'm

  D/f#             G                C       C/b      Am
e|2---------------|----3-----------|----------------|----------------|
B|----------3-----|----------------|----------1-----|----1-----------|
G|------2-------0-|----------0-----|------0-------0-|----------2-----|
D|----0-------0---|----0-------0---|----2-------0---|----2-------2---|
A|----------------|----------------|3-------2-------|0-------0-------|
E|2-------2-------|3-------3-------|----------------|----------------|
  feelin' all  the Satur - day are  failing to  ex - plain 

e|----------------|0---------------|0---------------|----3-----------|
B|0h1-------1-----|----------1-----|----------1-----|----------------|
G|------2---------|------2---------|------2---------|----------0-----|
D|----2-------2---|----2-------2---|----2-------2---|----0-------0---|
A|0-------0-------|0-------0-------|0-------0-------|----------------|
E|----------------|----------------|----------------|3-------3-------|

G                     D/f#     G                            D/f#
I've been walkin' all over the place, Now I'm walkin' back again
G                     D/f#    G                        D/f#   G
I've been smilin' all over my face, I wonder where the hell I been
D/f#              G              D/f#        G
Won't you take me by the hand, divided by my brain
    D/f#            G            C       C/b  Am
I'm feelin' all the Saturday are failing to explain

Ending:

  C                                C/b
e|--------------------------------|--------------------------------|
B|----------1---------------1-----|----------1---------------1-----|
G|------0---------------0---------|------0---------------0---------|
D|----2-------2-------2-------2---|----0-------0-------0-------0---|
A|3-------3-------3-------3-------|2-------2-------2-------2-------|
E|--------------------------------|--------------------------------|
  rest....................       my no     -       thing

  Am
e|--------------------------------|0^---|
B|----------1---------------------|1^---|
G|------2-------------------------|2^---|
D|----2-------2-------------------|2^---|
A|0-------0-----------------------|0^---|
E|--------------------------------|-----|
  ness                             on
 
Tap to rate this tab
# A B C D E F G H I J K L M N O P Q R S T U V W X Y Z