Song name
# A B C D E F G H I J K L M N O P Q R S T U V W X Y Z

Royal Blood - Little Monster tab

http://www.youtube.com/watch?v=BvAdgDcM9X4

The song is played on Bass, but same applies to guitar.

Tuning is Drop C

So drop D. Then a all strings whole step down.
So tuning should be CGCFAD.

This isnt the whole song, but its the basics. Its pretty simple to workout the rest based
around this. Bare in mind he  probably uses effects pedals on some parts to shift the pitch.


Main riff
F-----------------------------|
C----5p3---------5p3-5p3------|
G--------h5-------------------|
C--0------0-----0-------------|

verse
F-------------------------------|
C--3----------------------------|
G--3----------------------------|
C--3 hold----12slide down-------|

Chorus

F-------------------------------------------|
C--8-8--10/5---5-0h5--0h5-----3-3-5-0-------|
G--8-8--10/5---5-0h5--0h5-----3-3-5-0-------|
C--8-8--10/5---5-0h5--0h5-----3-3-5-0-------|

riff 2 (solo bit is based around this too, with descending bass notes)
F------------12b13b13-10----------------|
C--------------------------12-----------|
G---------------------------------------|
C---------------------------------------|

riff 3
F------------------------------|
C------------------------------|
G------------------------------|
C-----------5b6b5-3-0----------|


F-------------------------------|
C-------------------------------|
G-------------------------------|
C----------5b6b5-3/12-----------|


Theres enough to play around with here.
Tap to rate this tab
 
# A B C D E F G H I J K L M N O P Q R S T U V W X Y Z