Song name
# A B C D E F G H I J K L M N O P Q R S T U V W X Y Z

Royal Thunder - Low tab

Royal Thunder - Low
Tuning: Eb standard with a lowered D
Or Drop D and then capo on first fret

The chords are really easy to figure out.

If you have trouble reaching the 1h5 or 3h7, you can also play those notes on the D string.

E#|--------------------------------------------------|
B#|--------------------------------------------------|
G#|--------------------------------------------------|
D#|---3p0---------3p2--------3--------3--------------|
A#|-----------3h5-----3--1h5---3--3h7----------------|
D#|-0------0-----------------------------------------|

E#|--------------------------------------------------|
B#|--------------------------------------------------|
G#|-----------------------------------2--------------|
D#|---3p0---------3p2--------3-----------------------|
A#|-----------3h5-----3--1h5---1--0h4----------------|
D#|-0------0-----------------------------------------|

E#|--------------------------------------------------|
B#|--------------------------------------------------|
G#|--------------------------------------------------|
D#|---3p0---------3p2--------3--------3--------------|
A#|-----------3h5-----3--1h5---3--3h7----------------|
D#|-0------0-----------------------------------------|

E#|--------------------------------------------------|
B#|--------------------------0-------3---------------|
G#|--------------3p2-----1h5---5-3h7---7-------------|
D#|---3-5----3-5-----3-------------------------------|
A#|-------5------------------------------------------|
D#|-0------------------------------------------------|
Tap to rate this tab
# A B C D E F G H I J K L M N O P Q R S T U V W X Y Z