Song name
# A B C D E F G H I J K L M N O P Q R S T U V W X Y Z

Rubettes - Movin tab

Movin'
The Rubettes
Still Unwinding 1978
Greg Harper   gregharper2007@hotmail.co.uk

A great solo from Tony Thorpe in one of his 
very few compositions for the band. 
He went for the George Harrison 'Something' sound here too.
I am tuned very high here.  
This was probably done to enable the 
strings to play in a better register.  
I am almost up a semitone!

Intro (This works well with slides too!)

E|-------------------------------|
B|-------------------------------|
G|-------------------------------|
D|-----5-5------5-5------5-----5-|
A|-5h7------5h7------5h7---5h7---|
E|-------------------------------|

String imitation

E|------------------|
B|-----8-8------8-8-|
G|-7h9------7h9-----|
D|------------------|
A|------------------|
E|------------------|


E|--------------------------------------------------------------|
B|-(17b)-rb---17b-17\-14--------------------9h10p9h10-9\7-------|
G|-----------------------14-------------------------------9-8-6-|
D|--------------------------14-12-11----------------------------|
A|-----------------------------------12-11/---------------------|
E|--------------------------------------------------------------|

That should get you started!
A very unintentional modal solo.
Tap to rate this tab
# A B C D E F G H I J K L M N O P Q R S T U V W X Y Z