Song name
# A B C D E F G H I J K L M N O P Q R S T U V W X Y Z

Rudy La Scala - Mi Vida Eres Tu tab

http://www.rudylascala.com/
Tabbed by: Rob Ferrín

Intro:
    E         B   A        E
e|----------------------------|
B|----------------------------|
G|--9----4/6--4-------4/6--9--|
D|----------------7-----------|
A|--7----2/4--2-------2/4--7--|
E|----------------5-----------|

Verso:
                E                 E7M                       B (fill #1)
Perdona, es que yo...caminaba por aquí y en tu alcoba ví la luz
               A                   B                     E (fill #2)
Perdona mi actitud, quizás debí llamar y no presentarme así
                E              G#                     C#m
Perdona la ocasión, así lo decidió y de vuelta estoy aquí

B   A                       E                     F#m                B
          Creo que me equivoqué, qué bella que te ves, ya no puedo seguir

Coro:
             E    C#m
Mi vida eres tú
E     G#m       A    C#m    F#m
    y solamente tú
   C#m           F#m    A         B                 E      A    B
tratando de explicar su mano le tomé y la intenté besaaaaaaaaaaaar

             E    C#m
Mi vida eres tú
E     G#m       A    C#m    F#m
    y solamente tú
   C#m       F#m      A              B                   E      A    B
abrázame y verás que aún en nuestro ser hay fuego que apagaaaaaaaaaaaar


--------------------------(Repetir intro)--------------------------


Verso 2:
                  E                 E7M                 B (fill #1)
No sabes que tan mal lo puede uno pasar ausentándose de ti
               A                  B                      E (fill #2)
Cada día yo traté amar a alguien más que fuese igual que tú
                 E                      G#                       C#m
Ya ves, hoy regresé, con mi vergüenza estoy cara a cara frente a ti
B  A                  E                     F#m                B
      Si me quedo dímelo y si tengo que partir perdona es que aún


--------------------------(Repetir coro)--------------------------

Outro:
    E               B  A             E
e|--------------------------------------|
B|--------------------------------------|
G|--9----4--4/6--4--4-----4--4/6--4--9--|
D|---------------------7----------------|
A|--7----2--2/4--2--2-----2--2/4--2--7--|
E|---------------------5----------------|


Acordes usados:
    E   E7M   B   A   G#  C#m  F#m
e|--0----0----2---0---4----4----2---|
B|--0----0----4---2---4----5----2---|
G|--1----1----4---2---5----6----2---|
D|--2----1----4---2---6----6----4---|
A|--2----2----2---0---6----4----4---|
E|--0----0----x---0---4----4----2---|

Fill #1:
e|----------------------------|
B|----------------------------|
G|-----8--9/11-9----6-6/8-----|
D|--9-------------------------|
A|-----6--7/9--7----4-4/6-----|
E|--7-------------------------|

Fill #2:
e|----------------------------|
B|----------------------------|
G|-----8--8/9--8----6/9-------|
D|--9-------------------------|
A|-----6--6/7--6----4/7-------|
E|--7-------------------------|

Comentarios, correcciones o sugerencias: www.myspace.com/guerrerosdecarton
Tap to rate this tab
# A B C D E F G H I J K L M N O P Q R S T U V W X Y Z