Song name
# A B C D E F G H I J K L M N O P Q R S T U V W X Y Z

Rufio - Save The World tab

Highlighted       Show chord diagrams
Rufio
Save The World
Perhaps I Suppose
2001 Militia Records
Submitted by: paramore_fans@yahoo.com

Key: E

Tuning: Standard EADGBe

Chords used:
C#m -  x46654
A -    x02220
E -    022100 or 079900
B -    x24442
F#m -  244222
G#m -  466444
B/Eb - x698xx


Intro: C#m--A-E-B/Eb x3, C#m--E-G#m, C#m--E-B/Eb x2


Verse 1:
A                    B
  you pull me by the arm
                  C#m
tell me what to believe
            B
you tell me there
        A
is only one way
        B  A
one way to see
                   B
whatever faith you choose
               C#m
may not be for me
        B    A
how can i be saved
while being forced
B    A       B
to believe believe


Chorus:
E
  let's save the
A            C#m
world one by one
                 A
well make them believe
   B            E
conform if they must
                   A
don't question the thought
                       C#m
it's whats always been told
                  A
we'll make them believe
     B
lets save the world


Post Chorus: C#m--A-E-B/Eb, C#m--E-G#m


Verse 2:
C#m           A
so spread the word
    G#m             B
and tell me of good news
C#m           E
that if i act right
A             B
i can be like you
C#m
  well to live is to learn
          B       C#m
and think for yourself
                 A
and i'll do just that
        B
i don't need your help


(Repeat Verse 1 and Chorus)


Interlude: C#m--E--B--A-B x4, A, Bass line

Guitar 2:
   C#m   E   B    A     B
e|-----|---|---|-5-4-|------|
B|-----|---|-5-|-----|------|
G|-6---|-9-|---|-----|------|
D|-6---|-9-|---|-----|-idle-|
A|-4---|-7-|---|-----|------|
E|-----|-0-|---|-----|------|

    C#m      E       B       A      B
e|-5-4-0-|-5-4-0-|-7-5-4-|-7-5-4-|-5-4-0-|
B|-------|-------|-------|-------|-------|
G|-------|-------|-------|-------|-------|
D|-------|-------|-------|-------|-------|
A|-------|-------|-------|-------|-------|
E|-------|-------|-------|-------|-------|

    C#m     E         B          A         B
e|-5-4-0-|-5-4-|-7-5-4-5-4-0-|-7-5-4-|-5-4-0-5-4-0-|
B|-------|-----|-------------|-------|--very-fast--|
G|-------|-----|-------------|-------|-------------|
D|-------|-----|-------------|-------|-------------|
A|-------|-----|-------------|-------|-------------|
E|-------|-----|-------------|-------|-------------|

    C#m     E      B       A      B      A
e|-5-4-0-|-5-4-|-7-5-4-|-7-5-4-|-5-4-0-|-5-|
B|-------|-----|-------|-------|-------|---|
G|-------|-----|-------|-------|-------|---|
D|-------|-----|-------|-------|-------|---|
A|-------|-----|-------|-------|-------|---|
E|-------|-----|-------|-------|-------|---|


Bass Line: Very fast!!!
G|---------------|
D|-6---6---9-7-6-|
A|---7---7-------|
E|---------------|


(Repeat Chorus)


Outro: E--A--C#m--A-B x2, E(hold)
Tap to rate this tab
# A B C D E F G H I J K L M N O P Q R S T U V W X Y Z