Song name
# A B C D E F G H I J K L M N O P Q R S T U V W X Y Z

Rufio - Interlude tab

x = stop ring
. = palm mute
~ = let ring

(Guitar 1's Parts)

Intro:
|--------------------------------------------------------------|
|--------------------------------------------------------------|
|--------------------------------------------------------------|
|-0-0-0-0-----------0-0-0-0-----------3-3-3-3----------5-5-5-5-|
|-0-0-0-0-----------0-0-0-0-----------3-3-3-3----------3-3-3-3-|
|-0-0-0-0-----------0-0-0-0-----------3-3-3-3------------------|
  . . . .           . . . .           . . . .          . . . . 

|---------------------------------------------------------------------------|
|---------------------------------------------------------------------------|
|---------------------------------------------------------------------------|
|-0-0-0-0--0-0-0-0--0-0--0-0-0-0--3-3-3-3--3-3-3-3--3-3--5-5-5-5--5-5-5-5---|
|-0-0-0-0--0-0-0-0--0-0--0-0-0-0--3-3-3-3--3-3-3-3--3-3--3-3-3-3--3-3-3-3---|
|-0-0-0-0--0-0-0-0--0-0--0-0-0-0--3-3-3-3--3-3-3-3--3-3---------------------|
  . . . .  . . . .  . .  . . . .  . . . .  . . . .  . .  . . . .  . . . .
|------------|
|------------|
|------------|
|-5-5--------|
|-3-3--------|
|------------|
  . .

|---------------------------------------------------------------------------|
|---------------------------------------------------------------------------|
|---------------------------------------------------------------------------|
|-0-0-0-0x--0-0-0-0--0-0--0-0-0-0--3-3-3-3--3-3-3-3--3-3--5-5-5-5x--5-5-5-5-|
|-0-0-0-0x--0-0-0-0--0-0--0-0-0-0--3-3-3-3--3-3-3-3--3-3--3-3-3-3x--3-3-3-3-|
|-0-0-0-0x--0-0-0-0--0-0--0-0-0-0--3-3-3-3--3-3-3-3--3-3--------------------|
            . . . .  . .  . . . .  . . . .  . . . .  . .           . . . .
|------------|
|------------|
|------------|
|-5-5--------|
|-3-3--------|
|------------|
  . .

|---------------------------------------------------------------------------|
|---------------------------------------------------------------------------|
|---------------------------------------------------------------------------|
|-0-0-0-0x--0-0-0-0x--0-0x--0-0-0-0x--0-0-0-0x--0-0x--3-3-3-3x--3-3-3-3x----|
|-0-0-0-0x--0-0-0-0x--0-0x--0-0-0-0x--0-0-0-0x--0-0x--3-3-3-3x--3-3-3-3x----|
|-0-0-0-0x--0-0-0-0x--0-0x--0-0-0-0x--0-0-0-0x--0-0x--3-3-3-3x--3-3-3-3x----|

|-----------------------------|
|-----------------------------|
|-----------------------------|
|-3-3x--5-5-5-5x--5-5-5-5-5-5-|
|-3-3x--3-3-3-3x--3-3-3-3-3-3-|
|-3-3x------------------------|
  
Tap to rate this tab
# A B C D E F G H I J K L M N O P Q R S T U V W X Y Z