Song name
# A B C D E F G H I J K L M N O P Q R S T U V W X Y Z

Rungran - Dmc tab

-----------------------------------------------------------------
Song- d.m.c. (Devil May Cry)
Band- Rungran
-----------------------------------------------------------------
Tabbed by:titaniachkt

Tuning:Standard [EADGBe]   Difficulty:Very Easy

This is the opening theme to the Devil May Cry anime series Vol.I.I just tabbed out the 
song structure,feel free to improvise as you see fit.Listen to the song for the 
tuning might be different though.


0:04-0:14=> Intro
Play with lots of distortion and slides(be creative!)
e|-12~--11~---9~--12~--11-9-11~-12-14/15^--14--12--15--14-12-14~--|
B|----------------------------------------------------------------|
G|----------------------------------------------------------------|
D|----------------------------------------------------------------|
A|----------------------------------------------------------------|
E|----------------------------------------------------------------|

0:15-0:26=>Intro:loop II
Same as above.
e|-12~--11~---9~--12~--11-9-11~-12-14/15^--14--12--15--17^^--15-14----12~----|
B|-----------------------------------------------------------------15--------|
G|---------------------------------------------------------------------------|
D|---------------------------------------------------------------------------|
A|---------------------------------------------------------------------------|
E|---------------------------------------------------------------------------|

=>These are the fills that come right after the Intro.;not sure if they're 100% correct though
   @0:28               @0:31
e|-15-14-----12~--|---14--------12~--|
B|------15--------|-----15-12---12~--|
G|----------------|------------------|
D|----------------|------------------|
A|----------------|------------------|
E|----------------|------------------|

OR you could play this:

 @0:28               @0:31
e|-12--------12~--|---12--------[12]~--|
B|----15--12------|-----15-12---[12]~--|
G|----------------|--------------------|
D|----------------|--------------------|
A|----------------|--------------------|
E|----------------|--------------------|

0:36-0:46=>Keyboards/Synth pt.I
Since this is transcribed for violin synth I suggest you play it with slight vibrato.
                  @0:40        @0:43
e|-----------------15----------------------------------------------|
B|-------14-16--------16-------------------------------------------|
G|-17~-17-----17~-17-----17------16--------------------------------|
D|-------------------------18--18---17-----------------------------|
A|------------------------------------1817~-17-18-17~--------------|
E|-----------------------------------------------------------------|

0:47-0:57=>Keyboard/Synth pt.II
Same as above
e|-----------------15---------------------------------------------|
B|-------14-16--------16------------------------------------------|
G|-17~-17-----17-17------17-----16--------------------------------|
D|-------------------------18-18---17-------------15~-------------|
A|------------------------------------1817~-17-18-----------------|
E|----------------------------------------------------------------|


0:59-1:09=>Repeat the Intro
1:10-1:20=>Repeat the Intro:loop II etc.

KEY-
| /  slide up
| \  slide down
| h  hammer-on
| p  pull-off
| ~  vibrato
| []  harmonic
| ^  Half Bend
| ^^ Full Bend
Tap to rate this tab
# A B C D E F G H I J K L M N O P Q R S T U V W X Y Z