Song name
# A B C D E F G H I J K L M N O P Q R S T U V W X Y Z

Running Wild - Mutiny tab

Running Wild
Mutiny
Port Royal

v 1.0 Feb 2008


~ = vibrato or held note
h = hammer on
p = pull off
s = slide
fb =  full bend
hb = half bend
r = release bend
* = artificial harmonic


Mutiny, sort of a forgotten Running Wild song to me that I just had to put 
down to paper. I like the dramatic riffing that so fits the lyrics and how 
the tension is so nicely released in the solo. A great piece.
Corrections, suggestions to beardedattacker@hotmail.com



(00:00) Figure A


e:-------------------------------------------------------------------|
B:-------------------------------------------------------------------|
G:o--2-2-------------------------------------0-0---------------------|
D:o------2-2-3-3-0-0-2-2-----0-0-----2-2-3-3-----3-3-2-2-----0-0-----|
A:-----------------------3-3-----2-3---------------------3-3-----2-2-|
E:-------------------------------------------------------------------|


e:-------------------------------------------------------------------|
B:-------------------------------------------------------------------|
G:--2-2--------------------------------------------5-5-3-3-2-2------o|
D:------2-2-3-3-0-0-2-2-----0-0--------------------------------3-3--o|
A:----------------------3-3-----2-2-----3-3-2-2----------------------|
E:----------------------------------1-1---------3-3------------------|



(00:14) Figure B

e:-------------------------------------------------------------------|
B:-------------------------------------------------------------------|
G:o------------------------------------------------------------------|
D:o--------------------------2-2-3-3-------------------------5-------|
A:---0-0-0-0-3-3-5-5-0-0-0-0---------0-0-0-0-3-3-5-5-0-0-0-0-3-------|
E:-------------------------------------------------------------------|


e:-------------------------------------------------------------------|
B:-------------------------------------------------------------------|
G:----------------------------------2-2-----------------------------o|
D:--------------------------2-2-3-3-----2-2-3-3-0-0-2-2-----0-0-----o|
A:--0-0-0-0-3-3-5-5-0-0-0-0-----------------------------3-3-----2-3--|
E:-------------------------------------------------------------------|



(00:28) Figure C

e:-------------------------------------------------------------------|
B:-------------------------------------------------------------------|
G:o------------------------------------------------------------------|
D:-------------------------------------------------------------------|
A:---0-0-0-0-0-0-0-0-0-0-0-0-0-0-0-0-0-0-0-0-0-0-0-0-0-0-0-0-0-0-0-0-|
E:-------------------------------------------------------------------|


e:-------------------------------------------------------------------|
B:-------------------------------------------------------------------|
G:------------------------------------------------------------------o|
D:----------------------------------3-3-3-3-3-3-3-3-3-3-3-3-3-3-3-3-o|
A:-------------------------------------------------------------------|
E:--3-3-3-3-3-3-3-3-3-3-3-3-3-3-3-3----------------------------------|



(00:55) Figure D

e:-------------------------------------------------------------------|
B:-------------------------------------------------------------------|
G:o------------------------------------------------------------------|
D:o-----------------------------------------------2------------------|
A:---3p1p0-----3p1p0------3-3-3-3-3-3-3-3-3-3-3-3-0----3p1p0---------|
E:---------3-1-------3-1--------------------------------------3-1----|


e:-------------------------------------------------------------------|
B:-------------------------------------------------------------------|
G:------------------------------------------------------------------o|
D:-------------------------------------2----------------------------o|
A:--3p1p0------------------------------0-----------------------------|
E:--------3-1--3-3-3-3-3-3-3-3-3-3-3-3-------------------------------|



(01:09) Figure E

e:------------------------------------------|------------------------|
B:------------------------------------------|------------------------|
G:------------------------------------------|-----------9-----7------|
D:--2---------2---------2-------------------|-2---------7-----5------|
A:--0-0-0-0-0-0-0-0-0-0-0-0-0-0-0-5-3-3-3-3-|-0-0-0-0-0---0-0---0-0--|
E:--------------------------------3---------|------------------------|


e:------------------------|------------------------------------------|
B:------------------------|------------------------------------------|
G:--5---------------------|------------9-----7-----9-----------------|
D:--3---------------------|-2----------7-----5-----7-----5-----7-----|
A:----0-0-5-0-0-3-3-3-3-3-|-0--0-0-0-0---0-0---0-0---0-0-3-0-0-5-3-3-|
E:--------3-----1---------|------------------------------------------|


e:--------|----------------------------------------------------------|
B:--------|----------------------------------------------------------|
G:--------|---------9-----------5-----7-----7------------------------|
D:------2-|---------7-----7-----3-----5-----5-5-5-5-----2------------|
A:--3-3-0-|-0-0-0-0---0-0-5-0-0---0-0---0-0-------3-3-3-0------------|
E:--------|----------------------------------------------------------|




(01:22) Figure F

e:-------------------------------------------------------------------|
B:-------------------------------------------------------------------|
G:-------------------------------------------------------------------|
D:---------2-------3-------2-------5-------2-------3-------2---------|
A:---0-0-0---0-0-0---0-0-0---0-0-0---0-0-0---0-0-0---0-0-0---0-0-0---|
E:-------------------------------------------------------------------|


e:-------------------------------------------------------------------|
B:-------------------------------------------------------------------|
G:-------------------------------------------------------------------|
D:--------2-------3-------2-------5-------2-------3-------2----------|
A:--3-3-3---3-3-3---3-3-3---3-3-3---3-3-3---3-3-3---3-3-3---3-3-3----|
E:-------------------------------------------------------------------|




(02:17) Figure G

e:------------------------------------------|------------------------|
B:------------------------------------------|------------------------|
G:------------------------------------------|-----------9-----7------|
D:--2---------2---------2-------------------|-2---------7-----5------|
A:--0-0-0-0-0-0-0-0-0-0-0-0-0-0-0-5-3-3-3-3-|-0-0-0-0-0---0-0---0-0--|
E:--------------------------------3---------|------------------------|


e:------------------------|------------------------------------------|
B:------------------------|------------------------------------------|
G:--5---------------------|------------------------------------------|
D:--3---------------------|-2----------2-----------2-----5-----7-----|
A:----0-0-5-0-0-3-3-3-3-3-|-0--0-0-0-0---0-0-3-0-0---0-0-3-0-0-5-3-3-|
E:--------3-----1---------|------------------------------------------|


e:--------|----------------------------------------------------------|
B:--------|----------------------------------------------------------|
G:--------|---------9-----------5-----7------------------------------|
D:------2-|---------7-----7-----3-----5------------------------------|
A:--3-3-0-|-0-0-0-0---0-0-5-0-0---0-0---0-0-3--3-3-3-----------------|
E:--------|---------------------------------1------------------------|




(02:31) Figure H

e:-------------------------------------------------|-----------------|
B:-------------------------------------------------|-----------------|
G:o------------------------------------------------|-----------------|
D:o--7----------------------7----------------------|---------5-5-7-7-|
A:---5--5-5-5-5-5-5-3-3-3-3-5--5-5-5-5-5-5-2-2-3-3-|-0-0-0-0---------|
E:-------------------------------------------------|-----------------|


e:-------------------------------------------------------------------|
B:-------------------------------------------------------------------|
G:--5-5-----------------------------7--------------------------5-5---|
D:------7-7-----------------5-5-7-7-5------------------5-5-7-7-------|
A:----------2-2-3-3-0-0-0-0-----------2-2-3-3--0-0-0-0---------------|
E:-------------------------------------------------------------------|

e:-------------------------------------------------------------------|
B:-------------------------------------------------------------------|
G:-----------------------5-5-4-4------------------------------------o|
D:--7-7----------7-7-5-5---------5-5--------------------------------o|
A:------2-2-3-3------------------------------------------------------|
E:-------------------------------------------------------------------|




(02:51) Figure I (solo, Rolf)

    B                                    A
e:--------0h3--------------------------------------------------------|
B:---10p0-----3p0---------------3p0-5p0-7p0-8p0-10p0-15p0-14p0-12p0--|
G:----------------0-4p0-2p0-4p0--------------------------------------|
D:-------------------------------------------------------------------|
A:-------------------------------------------------------------------|
E:-------------------------------------------------------------------|
 
                 B                         G
e:-------------------------------------------------------------------|
B:--10p0-7p0-5p0-----------------------------------------------------|
G:---------------9hbr9p7-9p7----7------------------------------------|
D:---------------------------9*---9*-7h9p7---------------------------|
A:-----------------------------------------9p7-5*-7*-5*--------------|
E:-------------------------------------------------------7*-5*~------|

    B                A
e:--14-17-14-17fb----14-15p14-------------------------15p14----15p14-|
B:----------------------------17-14p15h14h17-14-15-17-------15-------|
G:-------------------------------------------------------------------|
D:-------------------------------------------------------------------|
A:-------------------------------------------------------------------|
E:-------------------------------------------------------------------|

                             B                G
e:-----------------------|-------------------------------------------|
B:--17---------12----12s-|-------------------------------------------|
G:-----14fb-14----14-----|---7-9-7----------------7-9-9fbr-9~--------|
D:-----------------------|---------9-7-9*-----7-9--------------------|
A:-----------------------|----------------7s9------------------------|
E:-----------------------|-------------------------------------------|

    E                                                        D
e:--12h15p12h15p12h15p12h15p12h15p12h15p12h15p12h15p12h15p12---------|
B:-----------------------------------------------------------12-15p--|
G:-------------------------------------------------------------------|
D:-------------------------------------------------------------------|
A:-------------------------------------------------------------------|
E:-------------------------------------------------------------------|

                                       E
e:-------------------------------------------------------------------|
B:-12-12-15p12h15p12-15p12h15p12h15p12-------------------------------|
G:-------------------------------------14p12-14fbrp12h14p12----------|
D:-------------------------------------------------------------------|
A:-------------------------------------------------------------------|
E:-------------------------------------------------------------------|

                      B                        E
e:------------------------------------------|--19-21-19-22-19-22p19--|
B:------------8-10fbr-10-8-10p8-8---8-------|------------------------|
G:---7*fbr--9---------------------9---9*fbr-|------------------------|
D:------------------------------------------|------------------------|
A:------------------------------------------|------------------------|
E:------------------------------------------|------------------------|

                                D
e:------22p19-------22p19-------22p19--------22p19-------22p19-------|
B:--19--------22p19-------22p19-------22p19--------22p19-------22p19-|
G:-------------------------------------------------------------------|
D:-------------------------------------------------------------------|
A:-------------------------------------------------------------------|
E:-------------------------------------------------------------------|

               E                (1+1/2)              A
e:--22p19h22-|-------------------------------------------------------|
B:-----------|-17-17-15-17--17fbr-----p15-17-15----------------------|
G:-----------|-----------------------------------16--12*fb-12~~------|
D:-----------|-------------------------------------------------------|
A:-----------|-------------------------------------------------------|
E:-----------|-------------------------------------------------------|

            E
e:----------------------------------22~~-----------------------------|
B:-------------------------------------------------------------------|
G:--12*fb-12~~-------------------------------------------------------|
D:-------------14~~--------14~~--------------------------------------|
A:-------------------------------------------------------------------|
E:-------------------------------------------------------------------|




(03:19) Figure J

e:----------------------------------------------|--------------------|
B:----------------------------------------------|--------------------|
G:----------------------------------------------|------------4-----7-|
D:--2---------2-----3-----2-----3---------------|-2----------2-----5-|
A:--0-0-0-0-0---0-0---0-0---0-0---0-0-5-3-3-3-3-|-0--0-0-0-0---0-0---|
E:------------------------------------3---------|--------------------|



e:--------------------------------|----------------------------------|
B:--------------------------------|----------------------------------|
G:------5-----7-----5-------------|----------------------------------|
D:------3-----5-----3-------------|-2----------5-----3-----2-----3---|
A:--0-0---0-0---0-0---0-0-3-3-3-3-|-0--0-0-0-0---0-0---0-0---0-0---0-|
E:--------------------------------|----------------------------------|



e:---------------|---------------------------------------------------|
B:---------------|---------------------------------------------------|
G:----7----------|------------------------5-----7--------------------|
D:----5----------|-2----------2-----0-----3-----5--------------------|
A:--0----3-3-3-3-|-0--0-0-0-0---0-0---0-0---0-0---0-0-3-3-3-3-3------|
E:---------------|------------------------------------1--------------|



e:-----------------------------------------------|-------------------|
B:-----------------------------------------------|-------------------|
G:-----------------------------------------------|-------------------|
D:--2----------2-----3-----2-----3---------------|-2----------2------|
A:--0--0-0-0-0---0-0---0-0---0-0---0-0-5-3-3-3-3-|-0--0-0-0-0---0-0--|
E:-------------------------------------3---------|-------------------|



e:------------------------------|------------------------------------|
B:------------------------------|------------------------------------|
G:--------5-----7-----5---------|------------------------------------|
D:--5-----3-----5-----3---------|-2----------5-----3-----2-----3-----|
A:----0-0---0-0---0-0---3-3-3-3-|-0--0-0-0-0---0-0---0-0---0-0---0-0-|
E:------------------------------|------------------------------------|



e:-------------|-----------------------------------------------------|
B:-------------|-----------------------------------------------------|
G:-------------|------------------------5-----7----------------------|
D:-------------|-2----------2-----0-----3-----5----------------------|
A:--5--3-3-3-3-|-0--0-0-0-0---0-0---0-0---0-0---0-0-3-3-3-3-3--------|
E:--3----------|------------------------------------1----------------|




(03:46) Figure K

e:-------------------------------------------------------------------|
B:-------------------------------------------------------------------|
G:o------------------------------------------------------------------|
D:o--3-3-3-3-3-3-----2-2-2-2-2-2-2-2---------2-2---------------------|
A:---------------5-5-----------------3-3-5-5-----3-3-5-5-5-5-5-5-----|
E:-------------------------------------------------------------------|


e:-------------------------------------------------------------------|
B:-------------------------------------------------------------------|
G:------------------------------------------------------------------o|
D:--3-3-3-3-3-3-----2-2-2-2-2-2-2-2---------2-2---------------------o|
A:--------------5-5-----------------3-3-5-5-----3-3-0-0-0-0-0-0------|
E:-------------------------------------------------------------------|




(04:07) Figure L (over Figure K)

e:-------------------------------------------------------------------|
B:---6-6-6-6-6-6-3-3-5-5-5-5-5-5-5-5-1-1-3-3-5-5-1-1-3-3-3-3-3-3-----|
G:o------------------------------------------------------------------|
D:o------------------------------------------------------------------|
A:-------------------------------------------------------------------|
E:-------------------------------------------------------------------|

e:-------------------------------------------------------------------|
B:---6-6-6-6-6-6-3-3-5-5-5-5-5-5-5-5-1-1-3-3-5-5-1-1-----------------|
G:---------------------------------------------------2-2-2-2-2-2----o|
D:------------------------------------------------------------------o|
A:-------------------------------------------------------------------|
E:-------------------------------------------------------------------|



Tap to rate this tab
 
# A B C D E F G H I J K L M N O P Q R S T U V W X Y Z