Song name
# A B C D E F G H I J K L M N O P Q R S T U V W X Y Z

Rush - Hope tab

-------------------------------------------------------------------------------
			     HOPE - RUSH
-------------------------------------------------------------------------------
Tabbed by: GUITARCHIK13
Email: dolphinsrock_94@yahoo.com

HEY EVERYONE!!!!!!!!! I WAS MESSING WITH MY GUITAR LIKE 5 MINUTES AGO AND I PLAYED A 
THAT SOUNDED LIKE IT. IDK .. I KNOW THIS IS PRETTY BAD. LOL!!! FREE TO EMAIL ME FOR 
COMMENTS & QUESTIONS! TRY TO FIGURE OUT THE STRUMMING ON YUOR OWN. NOT TOO HARD!

Tuning:DADAAD

D|---------------------------------------------------------------------------|
A|---------------------------------------------------------------------------|
A|---------------------------------------------------------------------------|
D|---------------------------------------------------------------------------|
A|---------3---0---3/5 ?-----------------------------------------------------|
D|-3--0----------------------------------------------------------------------|

D|---------------------------------------------------------------------------|
A|---------------------------------------------------------------------------|
A|---------------------------------------------------------------------------|
D|---------------------------------------------------------------------------|
A|--2/3----2/3-----2/3---3--3/5---55-----(REPEAT)----------------------------|
D|---------------------------------------------------------------------------|

D|---------------------------------------------------------------------------|
A|---------------------------------------------------------------------------|
A|---------------------------------------------------------------------------|
D|-----3------5--------------------------------------------------------------|
A|-----3------5--------------------------------------------------------------|
D|-----3------5--------------------------------------------------------------|

D|--00----3/5---5/3---00-----------------------------------------------------|
A|---------------------------------------------------------------------------|
A|---------------------------------------------------------------------------|
D|---------------------------------------------------------------------------|
A|---------------------------------------------------------------------------|
D|---------------------------------------------------------------------------|

D|---------------------------------------------------------------------------|
A|---------------------------------------------------------------------------|
A|---------------------------------------------------------------------------|
D|------3-----5------/-----7------3------5-----------------------------------|
A|------3-----5------/-----7------3------5-----------------------------------|
D|------3-----5------/-----7------3------5-----------------------------------|

D|-----3/5----5/3---00-------------------------------------------------------|
A|---------------------------------------------------------------------------|
A|---------------------------------------------------------------------------|
D|---------------------------------------------------------------------------|
A|---------------------------------------------------------------------------|
D|---------------------------------------------------------------------------|

D|---------------------------------------------------------------------------|
A|---------------------------------------------------------------------------|
A|---2/3---333--2/3---333---2/3----333----2/3----3333---3/5--5---555---------| (RPT.)
D|---------------------------------------------------------------------------|
A|---------------------------------------------------------------------------|
D|---------------------------------------------------------------------------|

D|-----------------------0-------------------------|
A|-----------------------5-------------------------|
A|-----------------------0-------------------------|
D|-----------------------0-------------------------|
A|-------------0---3-----0-------------------------|
D|----0---3--------------X-------------------------|

you strum every string with all those notes but i didnt feel like putting in all the 
WELL THERE YA GO! FEEL FREE TO EMAIL ME! I'D ALSO LIKE TO LEARN THE WHOLE SONG TOO
^_^


| /  slide up
| \  slide down
| h  hammer-on
| p  pull-off
| ~  vibrato
| +  harmonic
| x  Mute note
===============================================================================
Tap to rate this tab
# A B C D E F G H I J K L M N O P Q R S T U V W X Y Z