Song name
# A B C D E F G H I J K L M N O P Q R S T U V W X Y Z

Rush - Hope tab

-------------------------------------------------------------------------------------------------
                                             RUSH - HOPE
-------------------------------------------------------------------------------------------------

Band:           Rush (Alex Lifeson)
Song:           Hope
Album:          Snakes & Arrows
Track:          8
Year:           2007

Gtr. 1 - Acous. 12 String (Only Guitar) 
 
        1 2 3 4 5 6
Tuning: D A A D A D                    *Tab Legend should be found at bottom of page
Moderately Slow: Tempo - 58                          *Each row represents a new measure

A 
D|-----------------------0--0------------0-----0------------0----------0-----0--|--
A|-----------------------0--0---------0--------0---------0--0----------0--0--0--|--
A|-----------------0-----0--0--2h3p2--0------------------0--0-------0--0--0--0--|--
D|-----------------0------------------------3-----2h3p2--0----------0-----0-----|--
A|-------0h3--3/5----------------------------------------------3/5--------------|--
D|--0h3---------------0---------------------------------------------------------|--


D|-------------------------------------------------------0--0--0--|--
A|----------0-----0----------0-----0-------0-------0-----0--0--0--|--
A|----------0-----0----------0-----0-------0-------0-----0--0--2--|--
D|-------0-----2-----3p2--0----------------0-------0--------------|--
A|--2h3-------------------------3-----2h3-----3/5-----------------|--
D|----------------------------------------------------0-----------|--


D|--0----0--0--0--0----0--0--0--0----0--0--0----0--0--0--0--|--
A|--0----0--0--0--0----0--0--0--0----0--0--0----0--0--0--0--|--
A|--2h3--3--3--3--2h3--3--3--3--2h3--3--3--3--3/5--5--0--0--|--
D|-------0--0--0-------0--0--0-------0--0--0-------0--0--0--|--
A|----------------------------------------------------------|--
D|----------------------------------------------------------|--


D|--0----0--0------0----0--0------0----0--0--0----0--0--0--||
A|--0----0--0------0----0--0------0----0--0--0----0--0--0--||
A|--2h3--3--3p2p0--2h3--3--3p2p0--2h3--3--3--3--3/5--0--0--||
D|-------0--------------0--------------0--0--0----------0--||
A|------------------------------------------------------0--||
D|---------------------------------------------------------|| End section A

B
D|------------------------------------------------------------|--
A|-------0-----0--0-----0--0--0-------------------------------|--
A|-------0-----0--0-----0--0--0-------0--0--0--0--0--0-----0--|--
D|-------4-----4--4-----4--4--4--4h5--5--5--5--5--4--4-----0--|--
A|--4h5-----5--------5----------------------------------5-----|--
D|------------------------------------------------------------|--


D|------------------------------------------------------------------|--
A|----------0-----0--0-----0-----0----------0-----0--0-----0-----0--|--
A|----------0-----0--0-----0-----0----------0-----0--0-----0-----0--|--
D|-------2-----2-----2--------2-----2h4--4-----4-----2--------------|--
A|--2h4-----------------4-------------------------------4-----0-----|--
D|------------------------------------------------------------------|--


D|-------0--0--0--0-------0--0--0--0--------0--0--0--0-----0--|--
A|-------0--0--0--0-------0--0--0--0--0--0--0--0--0--0--0--0--|--
A|--0h4--4--4--4--4--4p0--0--0--0--0--0--0--4--4--4--4--0--0--|--
D|--0h4--4--4--4--4--4p0--0--0--0--0--0--0--4--4--4--4--0--0--|--
A|------------------------------------2-----------------------|--
D|------------------------------------------------------------|--


D|------------------------------------------------------------------|--
A|--7----7--7--7--7--7----7--7--7--7--7----7--7--7--7--7---------0--|--
A|--4----4--4--4--4--5----5--5--5--5--4----4--4--4--4--4----0----0--|--
D|--7----7--7--7--7--7----7--7--7--7--7----7--7--7--7--7----7----0--|--
A|--0----0--0--0--0--0----0--0--0--0--0----0--0--0--0--0----0----0--|--
D|------------------------------------------------------------------|--


D|----------------------------------------------------------|--
A|-------------------------------------------------------0--|--
A|--------0--0--0--------0--0--0--------0--0--0--0----0--0--|--
D|--5-----5--5--5--5-----5--5--5--4-----4--4--4--4h5--4--0--|--
A|--5--------------5--------------5-------------------------|--
D|--5--5-----------5--5-----------5--5----------------------|--

    |---------------------------------------------------------------------
    |   1st Ending
D|---2---2---2---2---2---4---4---0---2---2---2---2---2---2---2---2---2p0--|--
A|---0---0---0---0---0---0---0---0---0---0---0---0---0---0---0---0---0----|--
A|---0---0---0---0---0---0---0---0---0---0---0---0---0---0---0---0---0----|--
D|---2---2---2---2---2---4---4---0---2---2---2---2---2---2---2---2---2p0--|--
A|-------------------------------0----------------------------------------|--
D|---2---2---2---2---2---4---4---0---2---2---2---2---2---2---2---2---2p0--|--

    |---------------------------------------------------------------------
    |   2nd Ending
D|---2---2---2---2---2---4---4---0---2---2---2---2---2---2---2---2---2p0--||
A|---0---0---0---0---0---0---0---0---0---0---0---0---0---0---0---0---0----||
A|---0---0---0---0---0---0---0---0---0---0---0---0---0---0---0---0---0----||
D|---2---2---2---2---2---4---4---0---2---2---2---2---2---2---2---2---2p0--||
A|-------------------------------0----------------------------------------||
D|---2---2---2---2---2---4---4---0---2---2---2---2---2---2---2---2---2p0--|| End section B


C
D|-----------------------0--0----------------------------------|--
A|-----------------------0--0-------0--0--0--0--0--0--0--0--0--|--
A|-----------------0-----0--0--0----0--0--0--0--0--0--0--0--0--|--
D|-----------------0-----------0----0--0--0--0--0--0--0--0--0--|--
A|-------0h3--3/5--------------5/7--0-----------0--------------|--
D|--0h3---------------0----------------------------------------|--


D|--3--3--3--3--3--3/5--5--5--5--5--0--0--0-------0--------|--
A|--3--3--3--3--3--3/5--5--5--5--5--0--0--0-------0--------|--
A|--3--3--3--3--3--3/5--5--5--5--5--0--0--0----------0-----|--
D|--3--3--3--3--3--3/5--5--5--5--5--0--0--0--5h7-----0--0--|--
A|--3--3--3--3--3--3/5--5--5--5--5--0--0--0-------------0--|--
D|--3--3--3--3--3--3/5--5--5--5--5--0--0--0----------------|--


D|--3--3--3--3--3--3/5--5--5--5--5--0-------0------------------|--
A|--3--3--3--3--3--3/5--5--5--5--5--0--0----0-------0-------0--|--
A|--3--3--3--3--3--3/5--5--5--5--5--0--3h5--5--3p0--0-------0--|--
D|--3--3--3--3--3--3/5--5--5--5--5--0------------------5p3--0--|--
A|--3--3--3--3--3--3/5--5--5--5--5--0--------------------------|--
D|--3--3--3--3--3--3/5--5--5--5--5--0--------------------------|--


D|--3--3--3--3--3--3/5--5--5--5--5--0--0-------0--0-------0--0--0--0--|--
A|--3--3--3--3--3--3/5--5--5--5--5--0--0-------0--0-------0--0--0--0--|--
A|--3--3--3--3--3--3/5--5--5--5--5--0--0-------0--0-------0--0--0--0--|--
D|--3--3--3--3--3--3/5--5--5--5--5--0--0-------0--0--5/7--0--0--0--0--|--
A|--3--3--3--3--3--3/5--5--5--5--5--0--0--3/5--0--0-------0--0--0--0--|--
D|--3--3--3--3--3--3/5--5--5--5--5--0--0-------0--0-------0--0--0--0--|--


D|--3--3--3--3--3--3/5--5--5--5--5--|--
A|--3--3--3--3--3--3/5--5--5--5--5--|--
A|--3--3--3--3--3--3/5--5--5--5--5--|--
D|--3--3--3--3--3--3/5--5--5--5--5--|--
A|--3--3--3--3--3--3/5--5--5--5--5--|--
D|--3--3--3--3--3--3/5--5--5--5--5--|--


D|----------0--0-----0----------0--0--0--0-----0--|--
A|----------0--0-----0----------0--0--0--0-----0--|--
A|----------0--0--0--0----------0--0--0--0--0--0--|--
D|--0--5h7--------5-------------0--0--0-----5-----|--
A|--0-------------------3h5-----------------------|--
D|--0------------------------0--------------------|--


D|---------------0--||
A|---------------0--||
A|---------------0--||
D|---------------0--||
A|-------0h3--3--0--||
D|--0h3----------0--|| End section C (End Song)


Tab Legend:
(/) Slide Up  
(\) Slide Down  
(h) Hammer On  
(p) Pull Off  
(b) Bend 
(r) Release 
(v) Vibrato

I spent about 4 hours tabbing this out and inspecting it for errors. It should be accurate. 
This is also my first tab so any comments would be helpful. Thank you.

Questions, Comments, Typos, or Errors??
Email me at mackneile@gmail.com
Tabbed/Transcribed by: Neil Mack
Tap to rate this tab
# A B C D E F G H I J K L M N O P Q R S T U V W X Y Z