Guitaretab - guitar tabs
Song name
# A B C D E F G H I J K L M N O P Q R S T U V W X Y Z

Rush - Take A Friend tab

...after 2nd chorus:
         (vib)
e--------------------------------------------------------------------------|
B-----10-----10------10-------------------------------10-10h12p10----------|
G-9b11---9b11---9b11----9b11r9p7-----7-----9b119/11-----------------------|
D--------------------------------9p7---------------------------------------|
A--------------------------------------------------------------------------|
E--------------------------------------------------------------------------|

                  (gradually bend while picking)
(vib)
e-------10----10h12-12-12-12-12-12b14-------------12b14r12p10----10--------|
B-10-12----12-------------------------------------------------12----12-----|
G--------------------------------------------------------------------------|
D--------------------------------------------------------------------------|
A--------------------------------------------------------------------------|
E--------------------------------------------------------------------------|


                             (vib)
e---------------------------------------------------------------------------|
B------10h12p10-10-----------------------10------10------10-----------------|
G-9h11-------------97---9-7------7/9b11----9b11----9b11----11r9-------------|
D----------------------9-----------------------------------------7h9-7-7----|
A---------------------------------------------------------------------------|
E---------------------------------------------------------------------------|


                (vib)                                                (vib)
e---------------------------------------------------------------------------|
B---------------------------------------------------------------------------|
G---------------------------------------7-9---7-9-9b11-(11)--11r9---5-------|
D-----------------------------7-9---7-9-----9-------------------------------|
A-9p7-75-5/75---------5-7/9-----9-------------------------------------------|
E-------------------5-7-----------------------------------------------------|
[ Tab from: http://www.guitaretab.com/r/rush/16663.html ]
               (gradual)                                 (really fast)
                                        (vib)
e--------------------------------------------------------------------------|
B-----6h8p6-------------------6---8p6--------------------------------------|
G-5h7-------7-7b9r7------5h7---7-----7-------------5p0--------------------|
D-----------------------------------------------5h7-----5p3p0-5-3-5p3p0----|
A--------------------------------------------------------------------------|
E--------------------------------------------------------------------------|


                                              (vib)
e--------------------------------------------------------------------------|
B--------------------------------------------------------------------6---6-|
G----------------------------------------------------------------5h7---7---|
D-----------3h5p3p0-3p0-----------3----------------3-5-3-0-3-5/7-----------|
A-5p3p0-3h5-------------3h5p3p0-3---5p3p0-3-5------------------------------|
E--------------------------------------------------------------------------|

e---------------------------------------------------------------------------|
B-13p10----13p10-------10-13p10-------------------------------13------13----|
G-------12-------12b14----------12b14r12p10----------10-12b14----(14)-------|
D-------------------------------------------12p10h12------------------------|
A---------------------------------------------------------------------------|
E---------------------------------------------------------------------------|

                          (vib)                          (trem)
e---------------------------------------------------------------------------|
B--------------------------------------------------2-2--333333333333333--2--|
G-12b14r12p10-------10-----------2-2-22-2-/-4-4-4--2-2--222222222222222--2--|
D-------------12-10----12--------3-3-33-3-/-5-5-5--2-2--222222222222222--2--|
A--------------------------------------------------0-0-000000000000000--0--|
E---------------------------------------------------------------------------|

SUGGESTIONS FOR VERSE FILLS

Verse                           Fill
                                                               (vib)
e--2--2--------------2-2---------------------------------------------------|
B--3--3--------------3-3-------------10------10----------------------------|
G--2--2--------------2-2--------9b11----9b11----9b11r9p7-9---7-7-----------|
D--0--0--------------0-0-----------------------------------9---------------|
A--0--0------3---3p0-0-0---------------------------------------------------|
E--------3h5---5-----------------------------------------------------------|

e--------------------2-2---------------------------------------------------|
B--------------------3-3---------------------------------------------------|
G--------------------2-2-------------7-7--7----7-7------7-----------------|
D--------------------0-0--------7----7-7--7h9--7-7--7---7-----------------|
A------------3---3p0-0-0--------7h9------------------7h9-------------------|
E--------3h5---5-----------------------------------------------------------|
Related for Take A Friend tab