Guitaretab - guitar tabs
Song name
# A B C D E F G H I J K L M N O P Q R S T U V W X Y Z

Rush - Vital Signs tab

Highlighted       Show chord diagrams
Artist:     Rush
Song:       Vital Signs
Album:      Moving Pictures
Tabbed by:  Wiktor R. Kolowiecki
E-mail:     variat11@gmail.com

-------------------------------------------------------

Intro: Cm Bb G#

Cm G# Cm x2

Verse1:

   Cm      G#    Cm 
Unstable condition,
     Cm      G#    Cm
A symptom of life,
    Cm         G#           Cm      Cm G# Cm
Of mental and environmental change.
    Cm        G#        Cm
Atmosphereic disturbance,
    Cm       G#   Cm
The feverish flux
    Cm       G#             Cm
Of human interface and interchange.

Bridge:
                          
e|----------------------|   |---------------------|
B|----------------------|   |1--------------------|
G|-5--------------------|   |--0---1--------------|
D|---5---6--------------|or:|----1---1--------1---|
A|-----6---6--------6---|   |----------1-3--3---3-|
E|-----------6-8--8---8-|   |---------------------|

Bb   Cm D# Cm Bb

Prechorus 1:

NOTE: Playing prechorus on chords it's not really the best idea, 
I made it only for orientation, so better do it on one string:
                                      
e|---------------------------------||----------------------------------||
B|---------------------------------||.--------------------------------.||
G|---------------------------------||----------------------------------||
D|---------------------------------||.--------------------------------.||
A|-----------------------------6---||---------------------------6------||
E|-6-6-6-6-6-6-6-6-6-6-6-6-8-8---8-||-6-6-6-6-6-6-6-6-6-6-6-6-8---8-6--||
[ Tab from: http://www.guitaretab.com/r/rush/16683.html ]
e|---------------8--6-6--6---------||----------------------------------||
B|---------------8--8-8--6---------||.--------------------------------.||
G|---------------8--8-8--7---------||----------------------------------||
D|---------------10-8-8--8---------||.--------------------------------.||
A|---------------10-6-6--8---6-----||---------------------------6------||
E|-6-6-6-6-6-6-6-8--6-6--6-8---8-6-||-6-6-6-6-6-6-6-6-6-6-6-6-8---8-6--||

e|-8--6-6--4-4--|
B|-8--8-8--4-4--|
G|-8--8-8--5-5--|
D|-10-8-8--6-6--|
A|-10-6-6--6-6--|
E|-8--6-6--4-4--|

    Cm  D#  Cm  Bb
The impulse is pure;
               Cm  D#  Cm  Bb
Sometimes our circuits get shorted
   Cm       D#       Bb   Cm D# Cm Bb
By external interference.
                    Cm D# Cm Bb
Signals get crossed
                         Cm D# Cm
And the balance distorted
Bb   Cm     Bb   G#
By internal incoherence.

Chorus 1:

Cm                     Bb
A tired mind become a shape shifter,
                 G#
Everybody need a mood lifter,
Cm              Bb         G#
Everybody need reverse polarity.
Everybody got mixed feelings
About the function and the form.
Everybody got to elevate from the norm.

Cm G# Cm

Verse 2:

An ounce of perception,
A pound of obscure.
Process information at half speed.
Pause, rewind, replay,
Warm memory chip,
Random sample, hold the one you need.

[Bridge]

Prechorus 2:

Leave out the fiction,
The fact is, this friction
Will only be won by persistence.
Leave out conditions,
Courageous convictions
Will drag the dream into existence.

Chorus 2:

A tired mind become a shape shifter,
Everybody need a soft filter,
Everybody need reverse polarity.
Everybody got mixed feelings
About the function and the form.
Everybody got to elevate from the norm...

Outro:

Cm G# Bb G#

Cm             Bb        G# 
Everybody got mixed feelings
Everybody got mixed feelings
Everybody got to elevate from the norm - [repeat till fade]

--------------------------------------------------------------

[NOTE - I know there are some other words instead 'elevate' 
in this last repeating verse but I don't have time to find them ;P]
Related for Vital Signs tab
Advertisement will be closed in 10 seconds