Song name
# A B C D E F G H I J K L M N O P Q R S T U V W X Y Z

Rush - Yyz tab

This is how I play the solo. There's no tab for a solo so i'm putting this on here. I 
it into little groups so it is easier to understand. Yes i know theres a lot of hammer ons 
pull offs but this requires hardly any energy. XD

p- pull off
s- slide
h- hammer on
b- bend
r- release bend
/x- slide to x

First part
<------------------------------------------->
<---15p13p12p0--7s8h10p8h10p8s7h8p7s5------->
<------------------------------------------->
<------------------------------------------->
<------------------------------------------->
<------------------------------------------->


<-----------5------------------------------->
<---4s5-7-8---7h8p7p5s4s5-7b-5s4s5---------->
<------------------------------------------->
<------------------------------------------->
<------------------------------------------->
<------------------------------------------->

Second Part                                        Hit the whammy here
<---------------------------------------------------------------------->
<-0h1h4p1p0h4h7p4p0-12-19-17p16h17p16-13s12s13-16p13-16-17-17-13------->
<---------------------------------------------------------------------->
<---------------------------------------------------------------------->
<---------------------------------------------------------------------->
<---------------------------------------------------------------------->


Third Part
<--17p12h14p12h15p14p12h14p12------------------------>
<-----------------------------12s13-16b-13s12h13-13b->
<---------------------------------------------------->
<---------------------------------------------------->
<---------------------------------------------------->
<---------------------------------------------------->


<------------------------------------------->
<-12s10-12s13-12h13p12s10h12p10s8h10p8s7---->
<------------------------------------------->
<------------------------------------------->
<------------------------------------------->
<------------------------------------------->


Fourth Part
<-------------------------------------------------------------------->
<--0h1h4p1p0h1p0h4h7p4p0h4h5--4h5p4p0-10h13--10h12p10s8h10p8s7s8h10-->
<-------------------------------------------------------------------->
<-------------------------------------------------------------------->
<-------------------------------------------------------------------->
<-------------------------------------------------------------------->


Last Part
<------------------------------------------->
<-0h10h12p10p0h10h12p10p0h8h10p8p0h8h10p8p0->
<------------------------------------------->
<------------------------------------------->
<------------------------------------------->
<------------------------------------------->


<------------------------------------------------->
<--(from 0)-h7h8p7p0h5h7p5p0h4h5p4p0h1h4p1p0h10--->
<------------------------------------------------->
<------------------------------------------------->
<------------------------------------------------->
<------------------------------------------------->


Just hit that 10 about 8 times within 40 seconds then it goes
<--------------12----5h8---7br---------------------------->
<-------------------------------8------------------------->
<-------9----------------------------2-----5-------------->
<--7------------------------------------------------------>
<------------------------------------------------9/1------>
<--------------------------------------------------------->
Tap to rate this tab
 
# A B C D E F G H I J K L M N O P Q R S T U V W X Y Z