Song name
# A B C D E F G H I J K L M N O P Q R S T U V W X Y Z

Rush - Crossroads tab

--------------      -----------      --------------      -------------------|
--------------      -----------      --------------      -------------------|
--------------  4x  7-7-7-7-5-9  2x  --------------  2x  -------------------|
-7-5-7-7-7----      0-0-0-0-0-0      -7-5-7-7-7----      ----------14-14-10-|
0----------5-3      -----------      0----------5-3      7-7-5-9-9-12-12-12-|
--------------      -----------      --------------      0-0-0-5-5-10-10-10-|


----------------------  -------------------------- ----------------|
6/10-8----------------  -------------------------- ----------------|
-------9-7-5b-2-------  -----------------7-5-7-5b- ----------------| 2x
---------------0-1-2-2  -7-5-7-7-7-----0---------- -7-5-7-7-7------|
---------------------2  0----------5-3------------ 0----------5-3--|
---------------------0  -------------------------- ----------------|

-------------------|
-------------------|
-------------------|
----------14-14-10-|
7-7-5-9-9-12-12-12-|
0-0-0-5-5-10-10-10-|
Tap to rate this tab
# A B C D E F G H I J K L M N O P Q R S T U V W X Y Z