Song name
# A B C D E F G H I J K L M N O P Q R S T U V W X Y Z

Rush - Crossroads tab

e|---------------------------------------------|
B|---------------------------------------------|
G|---------------------------------------------|
D|------8--6--8--6-8-6------8--6--8--6-8-6-----|
A|---------------------------------------------|
E|---6------------------8-6--------------------|

e|---------------------------------------------|
B|---------------------------------------------|
G|---------------------------------------------|
D|--------8--6--8--6-8-6-------8--6--8--6-8-6--|
A|---------------------------------------------|
E|--8--6------------------8-6------------------|
Tap to rate this tab
# A B C D E F G H I J K L M N O P Q R S T U V W X Y Z