Song name
# A B C D E F G H I J K L M N O P Q R S T U V W X Y Z

Rush - Tears chords

Highlighted       Show chord diagrams
    ####### Tabbed by Arne Bredesen (arne.bredesen@hotmail.com ########
    ######## Tabs to an amazing song by Rush on the album 2112 ########
              ######## * means fingerpick the chord ########


Dm    : [xx0231]
Cadd  : [x32030]
C     : [x32010]
G     : [320033]
A     : [x02220]
Asus4 : [x02230]



[Riff 1]
e:--0---------------0-----------|
B:----6-------6-------6---------|
G:------0---------0-----0-------|
D:--------7---------------7-----|
A:-(8)-------------(8)----------|
E:------------------------------|

Bracketed notes are bass notes (if you play for yourself)


[Riff 2]
This is what's played in the original version:

A7sus4             A7             A7sus4             A7
e:--0--0--0--0--0-0--0--0--0--0--0-0--0--0--0--0--0-0--0--0--0--0--0~--|
B:--3---3-3---3-3--3-2---2-2---2-2--2-3---3-3---3-3--3-2---2-2---2-2~--|
G:--0-----0-----0----0-----0-----0----0-----0-----0----0-----0-----0~--|
D:--2-----2-----2----2-----2-----2----2-----2-----2----2-----2-----2~--|
A:--0-----0-----0----0-----0-----0----0-----0-----0----0-----0-----0~--|
E:---------------------------------------------------------------------|


But I think this sounds better:

  A7sus4            A7           A7sus4            A7
e:--0--0--0--0--0---0--0--0--------0--0--0--0--0---0--0--0~---|
B:--3---3-3---3-3---2---2-2--------3---3-3---3-3---2---2-2~---|
G:--0-----0-----0---0-----0--------0-----0-----0---0-----0~---|
D:--2-----2-----2---2-----2--------2-----2-----2---2-----2~---|
A:--0-----0-----0---0-----0--------0-----0-----0---0-----0~---|
E:------------------------------------------------------------|


[Riff 3]
   A7sus4        A7        A7sus4         A7
e:--------------------------------0----------------------------------|
B:-------3-------------2------------3-----------2--------------------|
G:-----0-----0-------0---------0------0-------0----------------------|
D:---2-------------2---------2--------------2------------------------|
A:-0-------------0---------0--------------0--------------------------|
E:-------------------------------------------------------------------|




Progression:

[Riff 1]

All of the seasons and all of the days
All of the reasons why I felt this way

[Riff 2]

So long, so long.

[Riff 1]

Then lost in that feeling, I looked in your eyes
I noticed emotion and that you had cried

[Riff 2]

For me, I can see.

Dm                    CaddD  C   G                   A       Asus4  A 
   What would touch me deep--er? Tears that fall from eyes that only cry?
Dm                    CaddD  C      G                     A*     
   Would it touch you deep---er than tears that fall from eyes that know why?

[Riff 1] x2
[Riff 2]
[Riff 1] x2

A lifetime of questions, tears on your cheek
I tasted the answers and my body was weak

[Riff 2]

For you, the truth.

Dm                    CaddD  C   G                   A       Asus4  A 
   What would touch me deep--er? Tears that fall from eyes that only cry?
Dm                    CaddD  C      G                     A*     
   Would it touch you deep---er than tears that fall from eyes that know why?

[Riff 1] x2
[Riff 3] x1
[Riff 1] x2
Tap to rate this tab
# A B C D E F G H I J K L M N O P Q R S T U V W X Y Z