Song name
# A B C D E F G H I J K L M N O P Q R S T U V W X Y Z

Rush - Clockwork Angels tab

Intro:

2 bars each:                                    1 bar each:
e|-------0--------0-------|-----------0---(0)----|---------------------------|
B|-------0--------0-------|-----------0---(0)---o|---------------------------|
G|--2----4----2---4-------|-------4---2---(2)----|----2---4---2---4----------|
D|--2----4----2---4-------|---5---4---2---(2)----|----2---4---2---4----------|
A|--0----2----0---2-------|---5---2---0---(0)---o|----0---2---0---2----------|
E|------------------------|---3------------------|---------------------------|
                                                Verse:
e|-----------------------|-----------------|---------------------------------|
B|-----------------------|-----------0----o|---------------------------------|
G|------2-----2----------|--------2--------|---------------------------------|
D|---5--2--5--2----------|-----4-----------|---------------------------------|
A|---5--0--5--0----------|--0-------------o|---------------------------------|
E|---3-----3-------------|-----------------|---------------------------------|


Listen to the song to get the timing on this part and how long to play each note:
e|---------------------------------------------------------------------------|
B|---------------------------------------------------------------------------|
G|--2h4-4-4-4-2-4-2-4----3h5-5-5-5-3-5-3-5-----------------------------------|
D|--2h4-4-4-4-2-4-2-4----3h5-5-5-5-3-5-3-5----3h5-5-5-5-3-5-3-5--------------|
A|--------------------------------------------3h5-5-5-5-3-5-3-5--------------|
E|---------------------------------------------------------------------------|

e|-----------------------------0---0---0---0-------0-------0-----------------|
B|-----------------------------0---0---0---0---0---0---0---0-----------------|
G|---0h2-2-2-2-0-2-0-2---------2---4---2---4---0---2---0---2-----------------|
D|---0h2-2-2-2-0-2-0-2---------2---4---2---4---5---2---5---2-----------------|
A|-----------------------------0---2---0---2---5---0---5---0-----------------|
E|---------------------------------------------3-------3---------------------|


Chorus:
e|--0---0-----0---0---------0---------0------0-------------------------------|
B|--0---0-----0---0-----0---0-----0---0------0--0-0-0-0-0-0-0-0-0-0----------|
G|--2---4-----2---4-----0---2-----0---2------4--4-4-4-4-4-4-4-4-4-4----------|
D|--2---4-----2---4-----5---2-----5---2------4-------------------------------|
A|--0---2-----0---2-----5---0-----5---0------2-------------------------------|
E|----------------------3---------3------------------------------------------|


Solo:
e|-------------------------12--10--12--14--12--14--17------------------------|
B|--0h7h10p7p0--10/12--10----------------------------------------------------|
G|---------------------------------------------------------------------------|
D|---------------------------------------------------------------------------|
A|---------------------------------------------------------------------------|
E|---------------------------------------------------------------------------|

e|----------------------------------------------7--10p7----------------------|
B|--[8]--8--7--5--7--5---------------3---8--10-----------10--8--7------------|
G|----------------------------0h2h4--------------------------------9--7h9----|
D|---------------------------------------------------------------------------|
A|---------------------------------------------------------------------------|
E|---------------------------------------------------------------------------|

e|-------------------------------5-----7-----5-------------------------------|
B|---------------------0h3--5/7-----7-----7-------8p7p5-----5---------7p5----|
G|-------------------------------------------------------7-------4h7---------|
D|--------7------------------------------------------------------------------|
A|-----9---------------------------------------------------------------------|
E|--7--------10--------------------------------------------------------------|

e|------7h10------7h10p7---10--12p10-10-12-14-14-12-14-15-15--14-12-14-------|
B|--10--------8--------------------------------------------------------------|
G|---------------------------------------------------------------------------|
D|---------------------------------------------------------------------------|
A|---------------------------------------------------------------------------|
E|---------------------------------------------------------------------------|

e|---------12----------------------------------------------------------------|
B|--14b15-----(14b15r14)---12b13r12------------------------------------------|
G|---------------------------------------------------------------------------|
D|---------------------------------------------------------------------------|
A|---------------------------------------------------------------------------|
E|---------------------------------------------------------------------------|

************************************

| /   slide up
| \   slide down
| h   hammer-on
| p   pull-off
| ~   vibrato
| +   harmonic
| x   Mute note
| b   Bend
| pb  Pre-bend
| br  Bend release
| pbr Pre-bend release
| brb Bend release bend

************************************
Tap to rate this tab
# A B C D E F G H I J K L M N O P Q R S T U V W X Y Z