Song name
# A B C D E F G H I J K L M N O P Q R S T U V W X Y Z

Rvivr - Paper Thin tab

Artist: RVIVR
Album: The Beauty Between
Song: Paper Thin

Song is in standard tuning.

Intro.
E-----------------------------------------------------------------3-|
A-------------------------------22222222--------------------------5-|
D-7777-5555-22222222--7777-5555-44444444--7777-9-9-9-9--77--------5-|
G-9999-7777-44444444--9999-7777-----------9999-11111111-99------0---|
B-----------------------------------------------------------5-3-----|
e-------------------------------------------------------------------|

Singing starts.
E-----------------------------|
A-----------------------------|
D-7~--------------7~-0-2---0~-|
G-7~-----0--------7~-----0----|
B-5~-5-3---3-5-3--5~----------|
e-0~--------------0~----------|

E---------------------------------------|
A---------------------------------------|
D------------------------------0-2---0~-|
G-----0~-----0-4-4b5-2------0~-----0----|
B-5-3----5-3------------5-3-------------|
e---------------------------------------|

Solo Starts
E-----------------------------------------------------|
A-----------------------------------------------------|
D-----------------------0-2---0-2---------------------|
G---0-----0-4b5b4-2-0-2-----0-----0-2b3b2-2-4-2b3b2-0-|
B-53--5-3---------------------------------------------|
e-----------------------------------------------------|

Solo cont.
E----------------------------|
A----------------------------|
D----------------------------|
G-2-2-2-0-0-0-2-2-4-2b3b2-0~-|
B----------------------------|
e----------------------------|

Chorus Chords
  Em   C    G     Em   C    G     A    C    G
E-0000------3333--0000------3333--5555------3333-|
A-2222-3333-5555--2222-3333-5555--7777-3333-5555-|
D-2222-5555-5555--2222-5555-5555--7777-5555-5555-|
G------5555------------5555------------5555------|
B------------------------------------------------|
e------------------------------------------------|

The song pretty much repeats itself from here, you should be able to figure the rest out.
Tap to rate this tab
# A B C D E F G H I J K L M N O P Q R S T U V W X Y Z