Guitaretab - guitar tabs
Song name
# A B C D E F G H I J K L M N O P Q R S T U V W X Y Z

Rx Bandits - Babylon tab

*********************************
* Song   : Babylon		*
* Artist : Rx Bandits		*
* Album  : Progress		*
* Year   : 2001			*
*********************************
    Tabbed by: Bill Streckfus

Tempo = 170 bpm

Intro:
------------------------------------------------------------------------------

Guitars 1 & 2 (Delay):

Shown below are the notes which are actually being played. These are of course
doubled with the delay effect.

E|-x-x-----x-x------|
B|-x-x-----x-x------|
G|-x-x-----x-x------|
D|------------------|
A|------------------|
E|------------------|

   E                  C#m                E                  C#m7    B
E|-4-------5p4------|-9------11h1211p12|-4-------5p4------|-9-9-----7--------|
B|-5-------5--------|-9-------9--------|-5-------5--------|-9-9-----7--------|
G|-x-------4---4----|-9----------------|-x-------4---4----|-9-------8--------|
D|------------------|------------------|------------------|-9----------------|
A|------------------|------------------|------------------|------------------|
E|------------------|------------------|------------------|------------------|
							 Arpeggiate

   E                  C#m                E                  C#m7    B
E|-4-------5p4------|-9------11h1211p12|-4-------5p4-4----|-9-------7--------|
B|-5-------5--------|-9-------9--------|-5-----------5----|-9-------7--------|
G|-x-------4---4----|-9----------------|-x-------------4--|-9-------8--------|
D|------------------|------------------|------------------|-9----------------|
A|------------------|------------------|------------------|------------------|
E|------------------|------------------|------------------|------------------|

   E                  C#m                E                  C#m7    B
E|-4-------5p4-4----|-9------11h1211p12|-x-------5p4------|-9-9-----7--------|
B|-5-----------5----|-9-------9--------|-x-------5--------|-9-9-----7--------|
G|-x-------------4--|-9----------------|-x-------4---4----|-9-------8--------|
D|------------------|------------------|------------------|-9-------9--------|
A|------------------|------------------|------------------|------------------|
E|------------------|------------------|------------------|------------------|
							          Arpeggiate

   E                  C#m                E                  C#m7    B
E|-4-------5p4-4----|-9------11h12-----|-x-----5p4--------|---------7--------|
B|-5-----------5----|-9-------9---x-x--|-x---------5---5--|-9-9-----7--------|
G|-x-------------4--|-9----------------|-x-----------4----|-9-------8--------|
D|------------------|------------------|------------------|-9-------9--------|
A|------------------|------------------|------------------|------------------|
E|------------------|------------------|------------------|------------------|

   E                  C#m                E                  C#m
E|-4-------5p4-4----|-9-------9--------|-4-----5p4--------|---9-9-9----------|
B|-5-----------5----|-9-------9--------|-5---------5---5--|---9-9-9----------|
G|-x-------------4--|-9----------------|-x-----------4----|---9-9-9----------|
D|------------------|------------------|------------------|------------------|
A|------------------|------------------|------------------|------------------|
E|------------------|------------------|------------------|------------------|

Verse
------------------------------------------------------------------------------

Guitars 1 & 2 (Delay):

   E           C#m    C#m7               E           C#m
E|-----4-------9-9--|-----9------------|---x-4-------9-9--|-----9------1112--|
B|-----5-------9-9--|-----9------------|---x-5-------9-9--|-----9-------9----|
G|-----4-------9----|-----9------------|---x-x-------9----|-----9------------|
D|------------------|-----9------------|------------------|------------------|
A|------------------|------------------|------------------|------------------|
E|------------------|------------------|------------------|------------------|
               p.m.     p.m.                         p.m.

   E           C#m7                      E           C#m
E|-----4------------|---x-9------------|-----4-------9----|-----9------1112--|
B|-----5-------x-9--|---x-9------------|-----5---9p109----|-----9-------9----|
G|-----4-------x-9--|---x-9------------|-----4-------9----|-----9------------|
D|-------------x-9--|-----9------------|------------------|------------------|
A|------------------|------------------|------------------|------------------|
E|------------------|------------------|------------------|------------------|


Guitar 1:

                                  C#m7   E
E|------------------|-------------9----|-----4-------5p4--|------------1112--|
B|------------------|-----------9-9----|-----5-------5----|------------------|
G|------------------|-------------9----|-----x-------x----|------------------|
D|------------------|-------------9----|------------------|------------------|
A|------------------|------------------|------------------|------------------|
E|------------------|------------------|------------------|------------------|

Guitar 2:

                                  C#m7   E
E|------------------|-------------9----|-----4-------5p4--|------------1112----|
B|------------------|-------------9----|-----5-------5----|--------------------|
G|-x-x-x-x-x-x-x-x--|-x-x-x-x-x-x-9----|-----x-------x----|--------------------|
D|------------------|-------------9----|------------------|--------------------|
A|------------------|------------------|------------------|--------------------|
E|------------------|------------------|------------------|--------------------|
   -----------Triplets---------------------------------------------------------|

Guitars 1 & 2 (Delay):

   E                  C#m                E                  C#m7
E|---x-4-------5p4--|-----9-------9----|-x-x-4---x-x-4----|-----9------------|
B|---x-5-------5----|-----9-------9----|-x-x-5---x-x-5----|-----9------------|
G|---x-4-------4----|-----9-------9----|-x-x-4---x-x-4----|-----9------------|
D|------------------|------------------|------------------|-----9------------|
A|------------------|------------------|------------------|------------------|
E|------------------|------------------|------------------|------------------|

Chorus
------------------------------------------------------------------------------

Guitars 1 & 2 (Delay):
[ Tab from: http://www.guitaretab.com/r/rx-bandits/130861.html ]
   B                                     C#m
E|-x---7---x---7----|-x---7---x---7----|-x---9---x---9----|-x---9---x--11h12-|
B|-x---7---x---7----|-x---7---x---7----|-x---9---x---9----|-x---9---x---9----|
G|-x---8---x---8----|-x---8---x---8----|-x---9---x---9----|-x---9---x---9----|
D|------------------|------------------|------------------|------------------| x 3
A|------------------|------------------|------------------|------------------|
E|------------------|------------------|------------------|------------------|

                                                            C#m
E|------------------|------------------|------------------|-----9-----x-x-x--|
B|------------------|------------------|------------------|-----9-----x-x-x--|
G|------------------|------------------|------------------|-----9-----x-x-x--|
D|------------------|------------------|------------------|------------------|
A|------------------|------------------|------------------|------------------|
E|------------------|------------------|------------------|------------------|

Verse 2
------------------------------------------------------------------------------

Guitars 1 & 2 (Delay):

   E                  C#m                E                  C#m     B
E|-4-------5p4------|-9---x-x11h12-x-x-|-4-------5p4------|-x-9-x-x-7----x-x-|
B|-5-------5--------|-----x-x-9----x-x-|-5-------5--------|-x-9-x-x-7----x-x-|
G|-x-------4---4----|-----x-x------x-x-|-x-------4---4----|-x---x-x-8----x-x-|
D|------------------|------------------|------------------|------------------|
A|------------------|------------------|------------------|------------------|
E|------------------|------------------|------------------|------------------|

   E                  C#m                E                  C#m     B
E|-4---x-x-5p4------|-x-9---911h12-----|-4---x-x-5p4-4-x--|-x-x-9---7--------|
B|-5---x-x-5--------|-x-------9--------|-5---x-x-----5-x--|-x-x-9---7--------|
G|-x---x-x-4---4----|-x----------------|-x---x-x-------x--|-x-x-9---8--------|
D|------------------|------------------|------------------|------------------|
A|------------------|------------------|------------------|------------------|
E|------------------|------------------|------------------|------------------|

   E                  C#m                E                  C#m
E|-x---7---x---7----|-x---9---x--11h12-|-x---7---x---7----|-x---9---x--11h12-|
B|-x---9---x---9----|-x---9---x---9----|-x---9---x---9----|-x---9---x---9----|
G|-x---9---x---9----|-x---9---x---9----|-x---9---x---9----|-x---9---x---9----|
D|------------------|------------------|------------------|------------------|
A|------------------|------------------|------------------|------------------|
E|------------------|------------------|------------------|------------------|

   E                  C#m                E                  C#m
E|-x---7---x---7----|-x---9---x--11h12-|-x---7---x---7----|-x-x-9---x-x-9----|
B|-x---9---x---9----|-x---9---x---9----|-x---9---x---9----|-x-x-9---x-x-9----|
G|-x---9---x---9----|-x---9---x---9----|-x---9---x---9----|-x-x-9---x-x-9----|
D|------------------|------------------|------------------|------------------|
A|------------------|------------------|------------------|------------------|
E|------------------|------------------|------------------|------------------|

   E                  C#m         C#m7   E                  C#m
E|-x---7---x---7----|-x---9-------9----|-x---7---x---7----|-x---9---x--11h12-|
B|-x---9---x---9----|-x---9-------9----|-x---9---x---9----|-x---9---x---9----|
G|-x---9---x---9----|-x---9-------9----|-x---9---x---9----|-x---9---x---9----|
D|------------------|-------------9----|------------------|------------------|
A|------------------|------------------|------------------|------------------|
E|------------------|------------------|------------------|------------------|
      p.m.    p.m.       p.m. Arpeggiate

   E                  C#m                E                  C#m
E|-x---7---x---7----|-x---9---x-x11h12-|-x---7---x---7----|-9---x-9-----x-x--|
B|-x---9---x---9----|-x---9---x-x-9----|-x---9---x---9----|-9---x-9-----x-x--|
G|-x---9---x---9----|-x---9---x-x-9----|-x---9---x---9----|-9---x-9-----x-x--|
D|------------------|------------------|------------------|------------------|
A|------------------|------------------|------------------|------------------|
E|------------------|------------------|------------------|------------------|

Bridge
------------------------------------------------------------------------------

Guitar 1 (tremolo/delay):

   B                  C#m                B                  C#m     B
E|---4---5p4--------|-------9--11h12---|---4---5p4--------|-------9---2------|
B|-----------5------|---------------9--|-----------5------|-----x-------4----|
G|-4---4-------4----|---x-9---9--------|-4---4-------4----|---x-----------4--|
D|------------------|------------------|------------------|------------------|
A|------------------|------------------|------------------|------------------|
E|------------------|------------------|------------------|------------------|

   Bsus4       C#m                       B
E|---4---------9----|------------------|---4---5p4--------|------------------|
B|-------5-----9----|------------------|-----------5------|------------------|
G|-4-----------9----|------------------|-4---4-------4----|------------------|
D|------------------|------------------|------------------|------------------|
A|------------------|------------------|------------------|------------------|
E|------------------|------------------|------------------|------------------|

   B                  C#m     B
E|---4---5p4--------|-----9-------7----|---4---5---4h5p4--|-------4----------|
B|-----------5------|---9---9---7---7--|------------------|-----------7---4--|
G|-4---4-------4----|-9-------8--------|-4---4------------|---x-4------------|
D|------------------|------------------|------------------|------------------|
A|------------------|------------------|------------------|------------------|
E|------------------|------------------|------------------|------------------|
		      p.m.  p.m.   p.m.

   B                  C#m     B                             C#m
E|---4---5p4--------|-9-9-x-x-7-7-x-x--|-x-x-x-x-x-x-x-x--|-9------------------|
B|-----------5------|-9-9-x-x-7-7-x-x--|-x-x-x-x-x-x-x-x--|-9------------------|
G|-4---4-------4----|-9-9-x-x-8-8-x-x--|-x-x-x-x-x-x-x-x--|-9------------------|
D|------------------|------------------|------------------|--------------------|
A|------------------|------------------|------------------|--------------------|
E|------------------|------------------|------------------|--------------------|
                     -----Triplets---------------------------------------------|


-----------------------------------------------------------------------------
If this tab was helpful and you're as big of a bandits fan as I am, be on the
lookout for more Rx Bandits tabs by yours truly.
Related for Babylon tab
Babylon chords by Rx Bandits