Song name
# A B C D E F G H I J K L M N O P Q R S T U V W X Y Z

Ry Cuming - Howling tab

Tuning: Standard
Tabbed by CK
 # tabbed this track by watching this cover: http://www.youtube.com/watch?v=1DMIA_0WR3M


[ Intro ] 2x  + [ Verse ] 4x
e|----------------|----------------|----------------|----------------|
B|----------------|----------------|----------------|----------------|
G|----------------|----------------|----------------|----------------|
D|------4-----4---|------7-----7---|------4-----2---|------4-----2---|
A|----------------|----------------|----------------|----------------|
E|5-5-5-5-5-5-5-5-|7-7-7-7-7-7-7-7-|2-2-2-2-2-2-2-2-|2-2-2-2-2-2-2-2-|


Verse 4. time :
e|----------------|----------------|----------------|----------------|
B|----------------|----------------|----------------|----------------|
G|----------------|----------------|----------------|----------------|
D|------4-----4---|------7-----7---|------4-----2---|----------------|
A|----------------|----------------|----------------|----------------|
E|5-5-5-5-5-5-5-5-|7-7-7-7-7-7-7-7-|2-2-2-2-2-2-2-2-|2-2-2-2-2-2-----|


[ Chorus ] 4x

e|------------------------|----------------|----------------|---------------|
B|------------------------|----------------|----------------|---------------|
G|---------09-------11----|------7-----6---|------2-----1---|---------------|
D|------------------------|----------------|----------------|------6-----4--|
A|------------------------|----------------|----------------|---------------|
E|10-10-10-10-10-10-10-10-|7-7-7-7-7-7-7-7-|2-2-2-2-2-2-2-2-|0-0-0-0-0-0-0-0|

transition to verse

e|----------------|
B|----------------|
G|----------------|
D|------6-----6---|
A|----------------|
E|0-0-0-0-0-0-0-0-|

lyrics, taken from 
http://www.littlewhiteearbuds.com/review/ry-frank-wiedemann-howling/#.UHAR066hJe8 - comments :

[Verse]
Hot night (is) coming,
Keep the car running,
Island(?) of fingers,
Swallow my (?),

[Chorus]
Cold, I smell into you spell,
on the ride, oh god we fell,
you were blushing, darling
there  you had me howling.

Cold, I fell into your skin,
on the night you let me under your sin,
you had me howling (x2).

[Verse]
oh oh, blush (x4)

Golden siren,
under exposen,
calling your weakness town,
on the floor,
in the back seat.

[Chorus]
Cold, I smell into you spell,
on the ride, oh god we fell,
you were blushing, darling
there  you had me howling.

Cold, I fell into your skin,
on the night you let me under your sin,
you had me howling (x2).

[Verse]
oh oh, blush (x4)

oh oh, blush (x4)


Thanks to Lotte Willemsen for lyrics
Thanks to Chrispygolfer for covering it
Tap to rate this tab
# A B C D E F G H I J K L M N O P Q R S T U V W X Y Z