Song name
# A B C D E F G H I J K L M N O P Q R S T U V W X Y Z

Ry X - Berlin chords

Highlighted       Show chord diagrams
-----------------------------------------------------------------------------
                             Berlin - Ry X
-----------------------------------------------------------------------------
Tabbed by: JalilAzi
E-mail: jalil309@gmail.com

Tuning: Standard Tuning

Intro
  D/F#  G                                 Am  G   D/F#
e|-------------------------------------------------------------------------|
B|-------------------------------------------------------------------------|
G|----2---4-4-4-4-4-4-4-4-4-4-4-4-4-4-4-4-5-5-4-4-2-2-2-2-2-2-2-2-2-2-2-2--|
D|-------------------------------------------------------------------------|
A|-------------------------------------------------------------------------|
E|--2---3---------------------------------5---3---2------------------------|

            Em  D   G     C
            uh..uh..uh....uh
e|---------------------------------------------------------|
B|----------8-8-7-7-12-12-5-5-5-5-5-5-5-5-5-5-5-5-5-5-5-5--|
G|--2-2-2-2------------------------------------------------|
D|---------------------------------------------------------|
A|----------7---5---10----3--------------------------------|
E|---------------------------------------------------------|


D/F# G    C
Come down love

Am     G      D/F#
Berlin in the cold

Em       D         G         C
All that fighting, all that snow


D/F# G   C
Sober nights

    Am    G     D/F#
and Byron on my mind

Em      D       G     C
Tell me I'm not going home

    Em        D       G      C
and I'll stop waiting by the phone


D/F# G
Am G D/F#

Em  D   G     C
uh..uh..uh....uh (x2)


D/F# G  C
Bedroom floor

    Am      G     C
and silence in my blood

Em    D        G       C
Sorry love I'm running home

      Em       D            G      C
I'm a child of sun and the stars I love

D/F# G
Am G D/F#
Tap to rate this tab
# A B C D E F G H I J K L M N O P Q R S T U V W X Y Z