Song name
# A B C D E F G H I J K L M N O P Q R S T U V W X Y Z

Ryan Adams - Cobwebs tab

Highlighted       Show chord diagrams
Band: Ryan Adams & The Cardinals
Song: Cobwebs
Album: Cardinology

-3- -3- -3- -3-     -0- -0-
-1- -1- -1- -1-     -0- -0-
-0- -0- -0- -0-     -0- -0-
-3- -0- -0- -0-     -5- -5-
-0- -3- -2- -2-     -3- -5-
-x- -x- -x- -3-     -5- -3-
 F   C   G   G2     C5?  G5

Capo: 3rd fret

chords relative to capo

Intro:

   F      C      G      G2

-----3--------------------3-----------|
-----1------1-----1-------1-----------|
---0------0-----0-------0-------------| x4
-3------------------------------------|
--------3-----2-----------------------|
----------------------3---------------|

Verse 1:

F - C - G

Somewhere impossible light still shines
And every smile is if as new
Sometimes i feel like the static in the attic
Is making me just confused

Chorus:

C5                           G5
If i fall will you catch me?
G5                           C5
If i'm sorry, sorry enough?
C5
If i fall will you pity me?
F         C         G                       F - 
- G
Will you confuse my love for the cobwebs?
F            C    G
Confuse my love for the cobwebs?

Verse 2:

F - C - G

I always pause if i can on 5th avenue
Look uptown with my head in the stars
Somewhere the buildings give way to sunlight
Give way to east and west central park

chorus:

If I fall will you catch me?
If i'm sorry, sorry enough?
If i fall will you pity me?
Will you confuse my love for the cobwebs?
Will you confuse my love for the cobwebs?
For the cobwebs?

Outro:

--------------------------------------------------------------|
--------------------------------------------------------------|
-0-0-0-0-0-0-0-0-0-0-0-0-0-0-0-0-0-0-0-0-0-0-0-0-0-0-0-0-0-0--| 'til end
-2-2-2-2-2-2-2-2-3-3-3-3-3-3-3-3-0-0-0-0-0-0-0-0-0-0-0-0-0-0--|
-3-3-3-3-3-3-3-3-3-3-3-3-3-3-3-3-3-3-3-3-3-3-3-3-3-3-3-3-3-3--|
--------------------------------------------------------------|

Will you confuse my love for the cobwebs?
Confuse my love for the cobwebs?
Confuse my love for the cobwebs?
Confuse my love for the cobwebs?
Confuse my love for the cobwebs?
Confuse my love for the cobwebs?
Confuse my love for the cobwebs?
Confuse my love for the cobwebs?
For the cobwebs?
For the cobwebs?
For the cobwebs?
For the cobwebs?
Tap to rate this tab
# A B C D E F G H I J K L M N O P Q R S T U V W X Y Z