Song name
# A B C D E F G H I J K L M N O P Q R S T U V W X Y Z

Ryan Keen - Focus tab

A great song by a great artist! Spent all day learning this. Fairly easy tab for Ryan 
Keen's song 'Focus' tabbed from this: http://www.youtube.com/watch?v=KHIauBaEe9Y I'm quite 
sure it's accurate but leave a comment if you have any improvements. Tab is relative to capo :)

Tuning: DADDAD
Capo: 3rd fret

Intro:
D-----------------------------------------------------------------------------|
A-----------------------------------------------------------------------------|
D-----4----4----4----4----4---4---4---4---7---7---7---7---7---7---7---7-------|
D-----------------------------------------------------------------------------|x2
A---2----2----2----2----0---0---0---0---5---5---5---5---5---5---5---5---------|
D-----------------------------------------------------------------------------|
^^ -repeat through these verses:

It's hard to see when the smoke cloud's over your eyes
And you lose focus as you losing on your time
And there's one last thing to do, it's waiting there on you
Cut from this circle leave, it behind

D------0---0-0-0-0-0-----0---0-0-0-0-0-----0---0-0-0-0-0------0---0-0-0-0-0-|
A------0---0-0-0-0-0-----0---0-0-0-0-0-----0---0-0-0-0-0------0---0-0-0-0-0-|
D------0---0-0-0-0-0-----0---0-0-0-0-0-----0---0-0-0-0-0------0---0-0-0-0-0-|
D------0-0-0-0-0-0-0-----0-0-0-0-0-0-0-----0-0-0-0-0-0-0------0-0-0-0-0-0-0-|
A-0h2--0-0-----------0h2-0-0-----------0h2-0-0------------0h2-0-0-----------|
D------0-0---------------0-0---------------5-5---5---5--------5-5---5---5---|
^^ - This continues through these verses:

Come on over for a moment, and see what you find
Worry and distance, it's all in your mind
Come on over, take a chance now
I know what you like
Caught in the middle, between your heart and your mind

Repeat intro:

And it's hard to see when the smoke clouds cover your eyes
And you loose focus as you losing on your time
And there's one last thing to do, it's waiting there on you
Cut from this circle leave, it behind

Repeat 2nd tab:

Come on over for a moment, see what you find
Worry and distance, it's all in your mind
Come on over, take a chance know
I know what you like
You're caught in the middle, between your heart and your mind

Repeat intro:

And it's hard to see when the smoke cloud's over your eyes
And you loose focus as you losing on your time
And there's one last thing to do, it's waiting there on you
Cut from this circle leave, it behind, whoa

Tapping sequence:

D----------------------------------------------------------------------------|
A----5---5---5---5---5---7---7---7---7---7---12--12--12--12--12--------------|
D----------------------------------------------------------------------------|
D----------------------------------------------------------------------------|
A-2---2---2---2----2---4---4---4---4---4---5---5---5---5---5-----------------|
D----------------------------------------------------------------------------|

D-----------------------------------------------------------------------------|
A---5---5---5---5---5---7---7---7---7---7---12--12--12--12--12--15--15--12-12-|
D-----------------------------------------------------------------------------|
D-----------------------------------------------------------------------------|
A-2---2---2---2---2---4---4---4---4---4---5---5---5---5---5---5---5---5---5---|
D-----------------------------------------------------------------------------|

I apologise since I don't know the tab in these verses since it is unclear on the video 
what he is playing

It's now, I was waiting on somebody else to show
Me how,
A singe spark will catch a light
And when you thought, could change your life
So take the leap and trust you'll reach the other, side

Outro:

D------0---0-0-0-0-0-----0---0-0-0-0-0-----0---0-0-0-0-0------0-------------0-|
A------0---0-0-0-0-0-----0---0-0-0-0-0-----0---0-0-0-0-0------0-------------0-|
D------0---0-0-0-0-0-----0---0-0-0-0-0-----0---0-0-0-0-0------0-------------0-|
D------0-0-0-0-0-0-0-----0-0-0-0-0-0-0-----0-0-0-0-0-0-0------0--0h2s4s2h0--0-|
A-0h2--0-0-----------0h2-0-0-----------0h2-0-0------------0h2-0-------------0-|
D------0-0---------------0-0---------------0-0----------------0-------------0-|

h=Hammer on/off
s=Slide
Tap to rate this tab
 
# A B C D E F G H I J K L M N O P Q R S T U V W X Y Z