Song name
# A B C D E F G H I J K L M N O P Q R S T U V W X Y Z

Ryan Sheridan - Jigsaw tab

-------------------------------------------------------------------------------
			     Ryan Sheridan - Jigsaw
-------------------------------------------------------------------------------

Tabbed by: Daniel Bell, Dublin, Ireland

Great single from Ryan Sheridan, took me a while to figure it out...
Not exactly sure if its perfect but there's no other tab for it!!
Hopefully someone can use this tab to have it done proper.

Tuning: EADF#Be

Chords Used for Verse below. Chord marked* used when he says "I got lost to find my way".

Open e string is optional

                                    *
e|------0---------0--------0--------0----------------------------------------|
B|------0---------0--------0--------3----------------------------------------|
G|------5---------3--------1--------1----------------------------------------|
D|------6---------4--------2--------2----------------------------------------|
A|------7---------5--------3--------0----------------------------------------|
E|------7---------5--------3--------x----------------------------------------|

 Little jig he does between verses...


    Strummed then...
e|------0-----------------------------------------------------------x--------|
B|------0-----------------------------------------------------------x--------|
G|------5-----------------------------------------------------------1--------|
D|------6---------------------------5-------------------------------2--------|
A|------7---------------------6----------------0-----5------7-------3--------|
E|------7----------------7---------------7--------------------------3--------|

These Chords used when he says "Smooth walkin..." etc.. (Bridge)

Last 2 chords played without the first chord towards end of bridge, use pinky for 10th!

e|------x-----------x---------x----------------------------------------------|
B|------0-----------x---------x----------------------------------------------|
G|------5-----------0---------0----------------------------------------------|
D|------6-----------9---------9----------------------------------------------|
A|------7-----------7---------7----------------------------------------------|
E|------x-----------8--------10----------------------------------------------|

When he ooohhhs and aahhhs... Play:

e|-------0----------0---------0--------0-------------------------------------|
B|-------0----------0---------0--------0-------------------------------------|
G|-------5----------7---------8-------10-------------------------------------|
D|-------6----------8---------9-------11-------------------------------------|
A|-------7----------9--------10-------12-------------------------------------|
E|-------7----------9--------10-------12-------------------------------------|

And then back to crazy strumming with the little jig finishing with the chord*

Enjoy :) Comment and rate!

************************************

| /   slide up
| \   slide down
| h   hammer-on
| p   pull-off
| ~   vibrato
| +   harmonic
| x   Mute note
| b   Bend
| pb  Pre-bend
| br  Bend release
| pbr Pre-bend release
| brb Bend release bend

************************************

www.ryansheridanmusic.com/
Tap to rate this tab
 
# A B C D E F G H I J K L M N O P Q R S T U V W X Y Z