Guitaretab - guitar tabs
Song name
# A B C D E F G H I J K L M N O P Q R S T U V W X Y Z

Sabaton - Ghost Division tab

Riff 1:

E1--------------------------------------------------|
B2--------------------------------------------------|
G3-----------------------------------------2--------|      2x
D4--4---5--4--5--4--5--4--2---4---5--4--5--0--2-----|
A5--2---3--2--3--2--3--2--0---2---3--2--3-----0-----|
E6--------------------------------------------------|

end of riff 1:

E1------------|
B2------------|
G3------------|
D4--4---------|
A5--2---------|
E6------------|

Riff 3:

E1---------------------------|
B2---------------------------|
G3---------------------------|    2x
D4--4--2---4--5-5--4--2------|
A5--2--0---2--3-3--2--0------|
E6---------------------------|

Riff 4:
[ Tab from: http://www.guitaretab.com/s/sabaton/176218.html ]
E1-------------------|
B2-------------------|
G3--2----------------|    1x
D4--0--2-----2-------|
A5-----0--5--0-------|
E6--------3----------|


Riff 1, 2x

Riff 3, 2x

Riff 5:

E1--------------------------------------|
B2--------------------------------------|
G3--2-----------------------------------|
D4--0--2-----2--------------------------|
A5-----0--5--0---5--4-4-4-4-4-4-4-4-4---|
E6--------3------3--2-2-2-2-2-2-2-2-2---|

Riif 1, 4x

Riff 3, 2x

Riff 4, 1x

Riff 1, 2x

Riff 3, 2x

Riff 5, 1x

Riff 1, 2x

Riff 6(when keyboard play solo):

E1--------------------------------------|
B2--------------------------------------|
G3-------------------4---4-x-2---x------|
D4--4---4-x-4----4-x-2---2-x-0---x-2----|
A5--2---2-x-2----2-x---------------0----|
E6--------------------------------------|

Riff 1, 3x

Riff 3, 2x

Riff 5, 1x

Riff 1, 4x
Related for Ghost Division tab