Song name
# A B C D E F G H I J K L M N O P Q R S T U V W X Y Z

Sacrety - Hallelujah tab

These are my tabs for the song "Hallelujah" by Sacrety. Enjoy playing!

0:00 - 0:34
e|-----------------------------|
H|-----------------------------|
G|-----------------------------|
D|000h23XXXX3352-000h23X(3)3357|
A|000h23XXXX3352-000h23XXXX3357|
D|000h23XXXX3352-000h23XXXX3357|

repeat 4x

0:35 - 0:51
e|--------------------------------------------------------------------|
H|--------------------------------------------------------------------|
G|--14----------------14----------------14----------------------------|
D|12--1010108-88888812--1010108-88888812--1010108-888888\3-33-3333-10-|
A|12--1010108-88888812--1010108-88888812--1010108-888888\3-33-3333-10-|
D|12--1010108-88888812--1010108-88888812--1010108-888888\3-33-3333-10-|

0:52 - 1:10
e|-----------------------------|
H|-----------------------------|
G|-----------------------------|
D|000h23XXXX3352-000h23X(3)3357|
A|000h23XXXX3352-000h23XXXX3357|
D|000h23XXXX3352-000h23XXXX3357|

repeat 1x

1:11 - 1:44
e|--------------------------------------------------------------------|
H|--------------------------------------------------------------------|
G|--14----------------14----------------14----------------------------|
D|12--1010108-88888812--1010108-88888812--1010108-888888\3-33-3333-10-|
A|12--1010108-88888812--1010108-88888812--1010108-888888\3-33-3333-10-|
D|12--1010108-88888812--1010108-88888812--1010108-888888\3-33-3333-10-|

repeat 1x

1:45 - 2:08
e|-------------------------------------------------|
H|-------------------------------------------------|
G|-------------------------------------------------|
D|000h8-000h3-000h8-00--000h8-000h3-000h8-00-3h5p3-|
A|000h8-000h3-000h8-00--000h8-000h3-000h8-00-3h5p3-|
D|000h8-000h3-000h8-00--000h8-000h3-000h8-00-3h5p3-|

e|------------------------------------------------------|
H|------------------------------------------------------|
G|------------------------------------------------------|
D|000h8-000h3-000h8-00-3h5p3-000h8-000h3-000h8-00-3h5p3-|
A|000h8-000h3-000h8-00-3h5p3-000h8-000h3-000h8-00-3h5p3-|
D|000h8-000h3-000h8-00-3h5p3-000h8-000h3-000h8-00-3h5p3-|

e|--------------------------------------------------|
H|--------------------------------------------------|
G|--------------------------------------------------|
D|--0h8-000h3-000h8-00-3h5p3---0h8-000h3-1010101010-|
A|--0h8-000h3-000h8-00-3h5p3---0h8-000h3-1010101010-|
D|--0h8-000h3-000h8-00-3h5p3---0h8-000h3-1010101010-|

2:09 - 2:51
e|---------------------------------------------------------------------|
H|---------------------------------------------------------------------|
G|1414121210----14----------------14-----------------------------------|
D|121210108---12--1010108-88888812--1010108-888888\3-33-3333-1010101010|
A|------------12--1010108-88888812--1010108-888888\3-33-3333-1010101010|
D|------------12--1010108-88888812--1010108-888888\3-33-3333-1010101010|

e|----------------------------------------------------------------------|
H|----------------------------------------------------------------------|
G|--14----------------14----------------14------------------------------|
D|12--1010108-88888812--1010108-88888812--1010108-888888\3-33-3333-10-0~|
A|12--1010108-88888812--1010108-88888812--1010108-888888\3-33-3333-10-0~|
D|12--1010108-88888812--1010108-88888812--1010108-888888\3-33-3333-10-0~|

MFJ
Tap to rate this tab
# A B C D E F G H I J K L M N O P Q R S T U V W X Y Z