Song name
# A B C D E F G H I J K L M N O P Q R S T U V W X Y Z

Sad Lovers And Giants - Cowboys tab

http://www.sadloversandgiants.co.uk/index.htm

I'm fairly new to learning guitar, and this is the first tab I've ever attempted 
to make so please don't bash me.  This is also a work in progress(I'll get to the 
rest of the song eventually).  Constructive feedback would be greatly appreciated 
- numanbowienin@aol.com

Guitar 1
E|--------------------7--------|
B|----9-------9----------------|
G|-7----9-7-9------9-----9---9-|
D|--------------10---------10--|
A|-----------------------------|
E|-----------------------------|

Guitar 2
E|-----------------------------|
B|-----------------------------|
G|-7-----7------5------------5-|
D|-----------------------------|
A|-----------------------------|
E|-----------------------------|


Guitar 1
E|--------------------7--------|
B|----9-------9----------------|
G|-7----9-7-9------9-----9---9-|
D|--------------10---------10--|
A|-----------------------------|
E|-----------------------------|

Guitar 2
E|-----------------------------|
B|-----------------------------|
G|-7-----7------5------------5-|
D|-----------------------------|
A|-----------------------------|
E|-----------------------------|


Guitar 1
E|--------------------5--------|
B|----7-------7----------------|
G|-5----7-5-7------7-----7---7-|
D|--------------8----------8---|
A|-----------------------------|
E|-----------------------------|

Guitar 2
E|-----------------------------|
B|-----------------------------|
G|-5-----5------3------------3-|
D|-----------------------------|
A|-----------------------------|
E|-----------------------------|


Guitar 1
E|--------------------6--------|
B|----7-------7----------------|
G|-5----7-5-7------9-----9---9-|
D|--------------8----------8---|
A|-----------------------------|
E|-----------------------------|

Guitar 2
E|-----------------------------|
B|-----------------------------|
G|-5-----5------3------------3-|
D|-----------------------------|
A|-----------------------------|
E|-----------------------------|
Tap to rate this tab
# A B C D E F G H I J K L M N O P Q R S T U V W X Y Z