Song name
# A B C D E F G H I J K L M N O P Q R S T U V W X Y Z

Saga - Wind Him Up tab

Saga - Wind Him Up

Tabbed by: nedthehead
e-Mail: domigit@yahoo.ca

This solo is 100% correct from a great 80's Classic from a great Canadian Band! Expect 
whole song transcribed for guitar soon!
      Q.       E   E   E   E   E      W
E||---------------15--17------15~--|--L----------------|
B||-----------15----------18-------|-------------------|
G||--12~---------------------------|-------------------|
D||--------------------------------|-------------------|
A||--------------------------------|-------------------|
E||--------------------------------|-------------------|


  Q.      S  S  E   S  S  E   S  S
---------------10--------11--------|
------------11--------11--------11-|
---------12--------12--------12----|
-----------------------------------|
-----------------------------------|
-----------------------------------|


   E   E   S  S  S  S  S  S  S  S  E   E
--13--11--10----------10-11-13-11-10------|
-------------13-11-13-----------------13--|
------------------------------------------|
------------------------------------------|
------------------------------------------|
------------------------------------------|


   Q.       E   E   E   E   E      W
---------------15--17------15~--|--L----------------|
--11~------15----------18-------|-------------------|
--------------------------------|-------------------|
--------------------------------|-------------------|
--------------------------------|-------------------|
--------------------------------|-------------------|


  Q.      E   E   E   E   E      E   E   E   E   E   E   E   E
-----------------10--11------|--10--11--13--10--11--13--15--18--|
-------------11----------11--|----------------------------------|
---------12------------------|----------------------------------|
-----------------------------|----------------------------------|
-----------------------------|----------------------------------|
-----------------------------|----------------------------------|


   Q    E   E   E   E   E   E      Q.      S  S  E   E   E   E
--18-----------15--17------20b--|--L------20-18-17--18--20-------|
-----------15----------18-------|---------------------------18~--|
--------------------------------|--------------------------------|
--------------------------------|--------------------------------|
--------------------------------|--------------------------------|
--------------------------------|--------------------------------|


   Q.      S  S  E   S  S  E   S  S
----------------10--------11--------|
---L---------11--------11--------11-|
----------12--------12--------12----|
------------------------------------|
------------------------------------|
------------------------------------|


   E   E   S  S  S  S  S  S  S  S  E   E
--13--11--10----------10-11-13-11-10------|
-------------13-11-13-----------------13--|
------------------------------------------|
------------------------------------------|
------------------------------------------|
------------------------------------------|


   Q.       E   E   E   E   E      Q.      S  S  E   E   E   E
---------------15--17------20b--|--L------20-18-17--18--20-------|
--11~------15----------18-------|---------------------------18~--|
--------------------------------|--------------------------------|
--------------------------------|--------------------------------|
--------------------------------|--------------------------------|
--------------------------------|--------------------------------|


  Q.       E   E   E   E   E      E   E   E   E   E   E   E   E
------------------10--11------|--10--11--13--10--11--13--15--18--|
--L~----------11----------11--|----------------------------------|
----------12------------------|----------------------------------|
------------------------------|----------------------------------|
------------------------------|----------------------------------|
------------------------------|----------------------------------|


   W
---Lb----------------||
---------------------||
---------------------||
---------------------||
---------------------||
---------------------||


Duration Legend
---------------
W - whole
H - half
Q - quarter
E - 8th
S - 16th
T - 32nd
X - 64th
. - note dotted
|-n-|  - n-tuplets


Tablature Legend
----------------
L - tied note
x - dead note
g - grace note
(n) - ghost note
> - accentuded note
NH - natural harmonic
AH - artificial harmonic
TH - tapped harmonic
SH - semi harmonic
PH - pitch harmonic
h - hammer on
p - pull off
b - bend
br - bendRelease
pb - preBend
pbr - preBendRelease
brb - bendReleaseBend
\n/ - tremolo bar dip
\n - tremolo bar dive
-/n - tremolo bar Release up
/n\ - tremolo bar inverted dip
/n - tremolo bar return
-\n - tremolo bar Release down
S - shift slide
s - legato slide
/ -  slide into from below or out of upwards
\ -  slide into from above or out of downwards
~ - vibrato
W - wide vibrato
tr - trill
TP - tremolo picking
T - tapping
S - slap
P - pop
< - fade in
^ - brush up
v - brush down
Tap to rate this tab
 
# A B C D E F G H I J K L M N O P Q R S T U V W X Y Z