Song name
# A B C D E F G H I J K L M N O P Q R S T U V W X Y Z

Sage Francis - The Best Of Times tab

Artist- Sage Francis
Song- The Best Of Times

Hi this is my first tab so don't be too harsh on me. I noticed that there wasn't a tab 
the guitar part in this song so I tried it out. I'm pretty sure this is 100% correct

This is from 2:43

e|--------------------------------------|
B|--------------------------------------|
G|----1-1-1-----1-1-1----1-1-1----1-1-1-|   x2
D|2-2--2-2-1-2-2-2-2-1--------2---------|
A|--------------------0-0-0-0--0-0-0-0-0|
E|--------------------------------------|


e|-----------------------------------------|
B|-----------------------------------------|
G|-----------------------------------------|   x2
D|---4-4-4-----2-2-2-----2-2-2-------2-2-2-|
A|6-6-6-6-6-4-4-4-4-4-2-2-2-2-2-4-2-2-2-2-2|
E|-----------------------------------------|


And those two basic riffs then repeat through the rest of the song. :)

Enjoy :)
Tap to rate this tab
 
# A B C D E F G H I J K L M N O P Q R S T U V W X Y Z