Song name
# A B C D E F G H I J K L M N O P Q R S T U V W X Y Z

Sagi Rei - Ill Fly With You tab

The Chords are always D maj - F# min - B min - G maj. This song is in D key.
Arpeggious
      D         F#min   Bmin     G
e -----0--------0--------0--------0----|
B ---3--3--------------3--3-----3--3---|
G --2-2--2----2--2------4--4--------0--|
D -0---------4-4--4---4--------0-0-----|
A -------------------2-----------------|
E ----------2-----------------3--------|


e -------------------------------------|
B --10-9-7----10-9-7-------------------|
G -7--7-7----7--7-7-7------------------|
D -------------------------------------|
A -------------------------------------|
E -------------------------------------|

By MarcoSty
Tap to rate this tab
# A B C D E F G H I J K L M N O P Q R S T U V W X Y Z