Song name
# A B C D E F G H I J K L M N O P Q R S T U V W X Y Z

Said The Shark - Runaround tab

-------------------------------------------------------------------------------
			     Runaround - Said the Shark
-------------------------------------------------------------------------------

FOR UG WEB/TABMASTERS : Said the shark homepage - www.Saidtheshark.com or
 www.myspace.com/saidtheshark

Tabbed by:Johan Carĝe
Email:Soyasoyzz@hotmail.com

Tuning:E A D G H e

Verse
        C#                 Bbm
e|-----------------------------------------------------|
B|--------4---------------2----------------------------|
G|--------------6----------------3---------------------|
D|------6------6-------3-------3-----------------------|
A|----4------4-------1-------1-------------------------|
E|-----------------------------------------------------|

Chorus
      Bbm                Bbm7
e|-------------------------------------------------------------------------|
B|-------------------------------------------------------------------------|
G|----------6-----6--------------------------------------------------------|
D|--------8-----8------------6--------6------------------------------------|
A|------8-----8------------8-------8---------------------------------------|
E|-----------------------6------6------------------------------------------|

 B part
      C#                    G#sus4                        last chord :Bbm
e|-------------------------------------------------------|-----------------|
B|-------------------------------------------------------|-----------------|
G|-----------6----------6-------------6----------6-------|----------6------|
D|--------6---------6-------------6----------6-----------|-------6---------|
A|-----4--------4-------------6----------6---------------|----8------------|
E|-------------------------------------------------------|-----------------|

thats it
Tap to rate this tab
# A B C D E F G H I J K L M N O P Q R S T U V W X Y Z