Song name
# A B C D E F G H I J K L M N O P Q R S T U V W X Y Z

Saigon Kick - Freedom tab

-----------------------------------------------------------------------------

                  Freedom  - Saigon Kick (GUITAR)

-----------------------------------------------------------------------------
Tabbed by: Scotto10

Tuning: Drop "D" AND down one half step

=============================================================================


Guitar - rhythm



     S S S   S E  S S S   S S   S E  E     S S S   S E  S S S   S S   S E  E
E||-------------------------------------|-------------------------------------|
B||-------------------------------------|-------------------------------------|
G||-------------------------------------|-------------------------------------|
D||------------5------------------5--5--|------------5------------------5--5--|
A||------------3------------------3--3--|------------3------------------3--3--|
D||--0-0-3br-0----0-0-3br-0-3br-0-------|--0-0-3br-0----0-0-3br-0-3br-0-------|


                                                     \1       \1
  S S S   S E  S S S   S S   S E  E     S S S   S E  H        E
-------------------------------------|---------------------------|
-------------------------------------|---------------------------|
-------------------------------------|---------------------------|
------------5------------------5--5--|------------5--------------|
------------3------------------3--3--|------------3--------------|
--0-0-3br-0----0-0-3br-0-3br-0-------|--0-0-3br-0----0--------L--|


  S S S   S E  S S S   S S   S E  E     S S S   S E  S S S   S S   S E  E
-------------------------------------|-------------------------------------|
-------------------------------------|-------------------------------------|
-------------------------------------|-------------------------------------|
------------5------------------5--5--|------------5------------------5--5--|
------------3------------------3--3--|------------3------------------3--3--|
--0-0-3br-0----0-0-3br-0-3br-0-------|--0-0-3br-0----0-0-3br-0-3br-0-------|


  S S S   S E  S S S   S S   S E  E     S S S   S E  S S S   S E   E   E
-------------------------------------|-------------------------------------|
-------------------------------------|-------------------------------------|
-------------------------------------|-------------------------------------|
------------5------------------5--5--|------------5------------------------|
------------3------------------3--3--|------------3------------3~--2~--1~--|
--0-0-3br-0----0-0-3br-0-3br-0-------|--0-0-3br-0----0-0-3br-0-3~--2~--1~--|


  S S S   S E  S S S   S S   S E  E     S S S   S E  S S S   S S   S E  E
-------------------------------------|-------------------------------------|
-------------------------------------|-------------------------------------|
-------------------------------------|-------------------------------------|
------------5------------------5--5--|------------5------------------5--5--|
------------3------------------3--3--|------------3------------------3--3--|
--0-0-3br-0----0-0-3br-0-3br-0-------|--0-0-3br-0----0-0-3br-0-3br-0-------|


  S S S   S E  S S S   S S   S E  E
-------------------------------------|
-------------------------------------|
-------------------------------------|
------------5------------------5--5--|
------------3------------------3--3--|
--0-0-3br-0----0-0-3br-0-3br-0-------|


                         PM PM PM PM PM PM
  S S S   S E  S S S   S S  S  S  S  S  S     H        S S S S S S S S
-------------------------------------------|---------------------------|
-------------------------------------------|---------------------------|
-------------------------------------------|--2------------------------|
------------5------------------------------|--0------------------------|
------------3------------3--3--2--2--1--1--|--0----------0-1-2-3-0-1-2-|
--0-0-3br-0----0-0-3br-0-3--3--2--2--1--1--|--0----------0-1-2-3-0-1-2-|


  H        S S S S S S S S    H        S S S S S S S S    H        H
---------------------------|---------------------------|--------------------|
---------------------------|---------------------------|--------------------|
---------------------------|---------------------------|--------------------|
--3------------------------|--3------------------------|--3--------5--------|
--3----------0-1-2-3-0-1-2-|--3----------0-1-2-3-0-1-2-|--3--------5--------|
--3----------0-1-2-3-0-1-2-|--3----------0-1-2-3-0-1-2-|--3--------5--------|


  H        S S S S S S S S    H        S S S S S S S S
---------------------------|---------------------------|
---------------------------|---------------------------|
--2------------------------|---------------------------|
--0------------------------|--3------------------------|
--0----------0-1-2-3-0-1-2-|--3----------0-1-2-3-0-1-2-|
--0----------0-1-2-3-0-1-2-|--3----------0-1-2-3-0-1-2-|


  H        S S S S S S S S    H        H
---------------------------|--------------------|
---------------------------|--------------------|
---------------------------|--------------------|
--3------------------------|--3--------5--------|
--3----------0-1-2-3-0-1-2-|--3--------5--------|
--3----------0-1-2-3-0-1-2-|--3--------5--------|


  S S S   S E  S S S   S S   S E  E     S S S   S E  S S S   S S   S E  E
-------------------------------------|-------------------------------------|
-------------------------------------|-------------------------------------|
-------------------------------------|-------------------------------------|
------------5------------------5--5--|------------5------------------5--5--|
------------3------------------3--3--|------------3------------------3--3--|
--0-0-3br-0----0-0-3br-0-3br-0-------|--0-0-3br-0----0-0-3br-0-3br-0-------|


  S S S   S E  S S S   S S   S E  E     S S S   S E  S S S   S E   E   E
-------------------------------------|-------------------------------------|
-------------------------------------|-------------------------------------|
-------------------------------------|-------------------------------------|
------------5------------------5--5--|------------5------------------------|
------------3------------------3--3--|------------3------------3~--2~--1~--|
--0-0-3br-0----0-0-3br-0-3br-0-------|--0-0-3br-0----0-0-3br-0-3~--2~--1~--|


  S S S   S E  S S S   S S   S E  E     S S S   S E  S S S   S S   S E  E
-------------------------------------|-------------------------------------|
-------------------------------------|-------------------------------------|
-------------------------------------|-------------------------------------|
------------5------------------5--5--|------------5------------------5--5--|
------------3------------------3--3--|------------3------------------3--3--|
--0-0-3br-0----0-0-3br-0-3br-0-------|--0-0-3br-0----0-0-3br-0-3br-0-------|


  S S S   S E  S S S   S S   S E  E
-------------------------------------|
-------------------------------------|
-------------------------------------|
------------5------------------5--5--|
------------3------------------3--3--|
--0-0-3br-0----0-0-3br-0-3br-0-------|


                         PM PM PM PM PM PM
  S S S   S E  S S S   S S  S  S  S  S  S     H        S S S S S S S S
-------------------------------------------|---------------------------|
-------------------------------------------|---------------------------|
-------------------------------------------|--2------------------------|
------------5------------------------------|--0------------------------|
------------3------------3--3--2--2--1--1--|--0----------0-1-2-3-0-1-2-|
--0-0-3br-0----0-0-3br-0-3--3--2--2--1--1--|--0----------0-1-2-3-0-1-2-|


  H        S S S S S S S S    H        S S S S S S S S    H        H
---------------------------|---------------------------|--------------------|
---------------------------|---------------------------|--------------------|
---------------------------|---------------------------|--------------------|
--3------------------------|--3------------------------|--3--------5--------|
--3----------0-1-2-3-0-1-2-|--3----------0-1-2-3-0-1-2-|--3--------5--------|
--3----------0-1-2-3-0-1-2-|--3----------0-1-2-3-0-1-2-|--3--------5--------|


  H        S S S S S S S S    H        S S S S S S S S
---------------------------|---------------------------|
---------------------------|---------------------------|
--2------------------------|---------------------------|
--0------------------------|--3------------------------|
--0----------0-1-2-3-0-1-2-|--3----------0-1-2-3-0-1-2-|
--0----------0-1-2-3-0-1-2-|--3----------0-1-2-3-0-1-2-|


  H        S S S S S S S S    H        H
---------------------------|--------------------|
---------------------------|--------------------|
---------------------------|--------------------|
--3------------------------|--3--------5--------|
--3----------0-1-2-3-0-1-2-|--3--------5--------|
--3----------0-1-2-3-0-1-2-|--3--------5--------|


  S S S   S E  S S S   S S   S E  E     S S S   S E  S S S   S S   S E  E
-------------------------------------|-------------------------------------|
-------------------------------------|-------------------------------------|
-------------------------------------|-------------------------------------|
------------5------------------5--5--|------------5------------------5--5--|
------------3------------------3--3--|------------3------------------3--3--|
--0-0-3br-0----0-0-3br-0-3br-0-------|--0-0-3br-0----0-0-3br-0-3br-0-------|


  S S S   S E  S S S   S S   S E  E     S S S   S E  S S S   S E   E   E
-------------------------------------|-------------------------------------|
-------------------------------------|-------------------------------------|
-------------------------------------|-------------------------------------|
------------5------------------5--5--|------------5------------------------|
------------3------------------3--3--|------------3------------3~--2~--1~--|
--0-0-3br-0----0-0-3br-0-3br-0-------|--0-0-3br-0----0-0-3br-0-3~--2~--1~--|


  S S S   S E  S S S   S S   S E  E     S S S   S E  S S S   S S   S E  E
-------------------------------------|-------------------------------------|
-------------------------------------|-------------------------------------|
-------------------------------------|-------------------------------------|
------------5------------------5--5--|------------5------------------5--5--|
------------3------------------3--3--|------------3------------------3--3--|
--0-0-3br-0----0-0-3br-0-3br-0-------|--0-0-3br-0----0-0-3br-0-3br-0-------|


  S S S   S E  S S S   S S   S E  E
-------------------------------------|
-------------------------------------|
-------------------------------------|
------------5------------------5--5--|
------------3------------------3--3--|
--0-0-3br-0----0-0-3br-0-3br-0-------|


                         PM PM PM PM PM PM
  S S S   S E  S S S   S S  S  S  S  S  S
-------------------------------------------|
-------------------------------------------|
-------------------------------------------|
------------5------------------------------|
------------3------------3--3--2--2--1--1--|
--0-0-3br-0----0-0-3br-0-3--3--2--2--1--1--|


  PM PM PM PM PM PM PM PM PM PM
  S  S  S  S  S  S  S  S  S  S  E  Q
----------------------------------------|
----------------------------------------|
----------------------------------------|
----------------------------------------|
--0--1--2--3--2--1--0--1--2--3--2--1----|
--0--1--2--3--2--1--0--1--2--3--2--1----|


  PM PM PM PM PM PM PM PM PM PM
  S  S  S  S  S  S  S  S  S  S  E  Q
----------------------------------------|
----------------------------------------|
----------------------------------------|
----------------------------------------|
--0--1--2--3--2--1--0--1--2--3--2--1----|
--0--1--2--3--2--1--0--1--2--3--2--1----|


  PM PM PM PM PM PM PM PM PM PM
  S  S  S  S  S  S  S  S  S  S  E  Q
----------------------------------------|
----------------------------------------|
----------------------------------------|
----------------------------------------|
--0--1--2--3--2--1--0--1--2--3--2--1----|
--0--1--2--3--2--1--0--1--2--3--2--1----|


  PM PM PM PM PM PM PM PM PM PM
  S  S  S  S  S  S  S  S  S  S  E  Q       W
----------------------------------------|-------------------|
----------------------------------------|-------------------|
----------------------------------------|-------------------|
----------------------------------------|-------------------|
--0--1--2--3--2--1--0--1--2--3--2--1----|--0----------------|
--0--1--2--3--2--1--0--1--2--3--2--1----|--0----------------|


  W                   W                   W                   W
-------------------|-------------------|-------------------|-------------------|
-------------------|-------------------|-------------------|-------------------|
-------------------|-------------------|-------------------|-------------------|
-------------------|-------------------|-------------------|-------------------|
--L----------------|--L----------------|--0----------------|--0----------------|
--L----------------|--L----------------|--0----------------|--0----------------|


  W                   W                   W
-------------------|-------------------|-------------------|----|----|----|----|
-------------------|-------------------|-------------------|----|----|----|----|
-------------------|-------------------|-------------------|----|----|----|----|
-------------------|-------------------|-------------------|----|----|----|----|
--0----------------|--0----------------|--0----------------|----|----|----|----|
--0----------------|--0----------------|--0----------------|----|----|----|----|


                                          W                   W
----|----|----|----|----|----|----|----|-------------------|-------------------|
----|----|----|----|----|----|----|----|-------------------|-------------------|
----|----|----|----|----|----|----|----|-------------------|-------------------|
----|----|----|----|----|----|----|----|-------------------|-------------------|
----|----|----|----|----|----|----|----|--0----------------|--L----------------|
----|----|----|----|----|----|----|----|--0----------------|--L----------------|



This part is carried by the other guitar. It is the interlude and solo

-------------------|-------------------|-------------------|-------------------|
-------------------|-------------------|-------------------|-------------------|
-------------------|-------------------|-------------------|-------------------|
-------------------|-------------------|-------------------|-------------------|
-------------------|-------------------|-------------------|-------------------|
-------------------|-------------------|-------------------|-------------------|


-------------------|-------------------|-------------------|-------------------|
-------------------|-------------------|-------------------|-------------------|
-------------------|-------------------|-------------------|-------------------|
-------------------|-------------------|-------------------|-------------------|
-------------------|-------------------|-------------------|-------------------|
-------------------|-------------------|-------------------|-------------------|


-------------------|-------------------|-------------------|-------------------|
-------------------|-------------------|-------------------|-------------------|
-------------------|-------------------|-------------------|-------------------|
-------------------|-------------------|-------------------|-------------------|
-------------------|-------------------|-------------------|-------------------|
-------------------|-------------------|-------------------|-------------------|



Rhythm under the solo:
                                          PM PM PM PM PM PM PM PM
                                          E  E  E  E  E  E  E  E
-------------------|-------------------|--------------------------|
-------------------|-------------------|--------------------------|
-------------------|-------------------|--------------------------|
-------------------|-------------------|--------------------------|
-------------------|-------------------|--------------------------|
-------------------|-------------------|--0--0--0--0--0--0--0--0--|


  PM PM PM PM PM PM PM PM
  E  E  E  E  E  E  E  E     S S S   S E  S S S   S S   S E  E
--------------------------|-------------------------------------|
--------------------------|-------------------------------------|
--------------------------|-------------------------------------|
--------------------------|------------5------------------5--5--|
--------------------------|------------3------------------3--3--|
--0--0--0--0--0--0--0--0--|--0-0-3br-0----0-0-3br-0-3br-0-------|


  S S S   S E  S S S   S S   S E  E     S S S   S E  S S S   S S   S E  E
-------------------------------------|-------------------------------------|
-------------------------------------|-------------------------------------|
-------------------------------------|-------------------------------------|
------------5------------------5--5--|------------5------------------5--5--|
------------3------------------3--3--|------------3------------------3--3--|
--0-0-3br-0----0-0-3br-0-3br-0-------|--0-0-3br-0----0-0-3br-0-3br-0-------|


  S S S   S E  S S S   S E   E   E      S S S   S E  S S S   S S   S E  E
-------------------------------------|-------------------------------------|
-------------------------------------|-------------------------------------|
-------------------------------------|-------------------------------------|
------------5------------------------|------------5------------------5--5--|
------------3------------3~--2~--1~--|------------3------------------3--3--|
--0-0-3br-0----0-0-3br-0-3~--2~--1~--|--0-0-3br-0----0-0-3br-0-3br-0-------|


  S S S   S E  S S S   S S   S E  E     S S S   S E  S S S   S S   S E  E
-------------------------------------|-------------------------------------|
-------------------------------------|-------------------------------------|
-------------------------------------|-------------------------------------|
------------5------------------5--5--|------------5------------------5--5--|
------------3------------------3--3--|------------3------------------3--3--|
--0-0-3br-0----0-0-3br-0-3br-0-------|--0-0-3br-0----0-0-3br-0-3br-0-------|


                         PM PM PM PM PM PM
  S S S   S E  S S S   S S  S  S  S  S  S     H        S S S S S S S S
-------------------------------------------|---------------------------|
-------------------------------------------|---------------------------|
-------------------------------------------|--2------------------------|
------------5------------------------------|--0------------------------|
------------3------------3--3--2--2--1--1--|--0----------0-1-2-3-0-1-2-|
--0-0-3br-0----0-0-3br-0-3--3--2--2--1--1--|--0----------0-1-2-3-0-1-2-|


  H        S S S S S S S S    H        S S S S S S S S    H        H
---------------------------|---------------------------|--------------------|
---------------------------|---------------------------|--------------------|
---------------------------|---------------------------|--------------------|
--3------------------------|--3------------------------|--3--------5--------|
--3----------0-1-2-3-0-1-2-|--3----------0-1-2-3-0-1-2-|--3--------5--------|
--3----------0-1-2-3-0-1-2-|--3----------0-1-2-3-0-1-2-|--3--------5--------|


  H        S S S S S S S S    H        S S S S S S S S
---------------------------|---------------------------|
---------------------------|---------------------------|
--2------------------------|---------------------------|
--0------------------------|--3------------------------|
--0----------0-1-2-3-0-1-2-|--3----------0-1-2-3-0-1-2-|
--0----------0-1-2-3-0-1-2-|--3----------0-1-2-3-0-1-2-|


  H        S S S S S S S S    H        H
---------------------------|--------------------|
---------------------------|--------------------|
---------------------------|--------------------|
--3------------------------|--3--------5--------|
--3----------0-1-2-3-0-1-2-|--3--------5--------|
--3----------0-1-2-3-0-1-2-|--3--------5--------|


  S S S   S E  S S S   S S   S E  E     S S S   S E  S S S   S S   S E  E
-------------------------------------|-------------------------------------|
-------------------------------------|-------------------------------------|
-------------------------------------|-------------------------------------|
------------5------------------5--5--|------------5------------------5--5--|
------------3------------------3--3--|------------3------------------3--3--|
--0-0-3br-0----0-0-3br-0-3br-0-------|--0-0-3br-0----0-0-3br-0-3br-0-------|


  S S S   S E  S S S   S S   S E  E     S S S   S E  S S S   S E   E   E
-------------------------------------|-------------------------------------|
-------------------------------------|-------------------------------------|
-------------------------------------|-------------------------------------|
------------5------------------5--5--|------------5------------------------|
------------3------------------3--3--|------------3------------3~--2~--1~--|
--0-0-3br-0----0-0-3br-0-3br-0-------|--0-0-3br-0----0-0-3br-0-3~--2~--1~--|


  S S S   S E  S S S   S S   S E  E     S S S   S E  S S S   S S   S E  E
-------------------------------------|-------------------------------------|
-------------------------------------|-------------------------------------|
-------------------------------------|-------------------------------------|
------------5------------------5--5--|------------5------------------5--5--|
------------3------------------3--3--|------------3------------------3--3--|
--0-0-3br-0----0-0-3br-0-3br-0-------|--0-0-3br-0----0-0-3br-0-3br-0-------|


                                                               PM PM PM
  S S S   S E  S S S   S S   S E  E     S S S   S E  S S S   S E  E  E
-------------------------------------|----------------------------------|
-------------------------------------|----------------------------------|
-------------------------------------|----------------------------------|
------------5------------------5--5--|------------5---------------------|
------------3------------------3--3--|------------3------------3--2--1--|
--0-0-3br-0----0-0-3br-0-3br-0-------|--0-0-3br-0----0-0-3br-0-3--2--1--|


  S S S   S E  S S S   S S   S E  E     S S S   S E  S S S   S S   S E  E
-------------------------------------|-------------------------------------|
-------------------------------------|-------------------------------------|
-------------------------------------|-------------------------------------|
------------5------------------5--5--|------------5------------------5--5--|
------------3------------------3--3--|------------3------------------3--3--|
--0-0-3br-0----0-0-3br-0-3br-0-------|--0-0-3br-0----0-0-3br-0-3br-0-------|


  S S S   S E  S S S   S S   S E  E     S S S   S E  S S S   S E   E   E
-------------------------------------|-------------------------------------|
-------------------------------------|-------------------------------------|
-------------------------------------|-------------------------------------|
------------5------------------5--5--|------------5------------------------|
------------3------------------3--3--|------------3------------3~--2~--1~--|
--0-0-3br-0----0-0-3br-0-3br-0-------|--0-0-3br-0----0-0-3br-0-3~--2~--1~--|


  S S S   S E  S S S   S S   S E  E     S S S   S E  S S S   S S   S E  E
-------------------------------------|-------------------------------------|
-------------------------------------|-------------------------------------|
-------------------------------------|-------------------------------------|
------------5------------------5--5--|------------5------------------5--5--|
------------3------------------3--3--|------------3------------------3--3--|
--0-0-3br-0----0-0-3br-0-3br-0-------|--0-0-3br-0----0-0-3br-0-3br-0-------|


  S S S   S E  S S S   S S   S E  E     S S S   S E  S S E  Q.
-------------------------------------|-----------------------------||
-------------------------------------|-----------------------------||
-------------------------------------|-----------------------------||
------------5------------------5--5--|------------5----------------||
------------3------------------3--3--|------------3----------------||
--0-0-3br-0----0-0-3br-0-3br-0-------|--0-0-3br-0----0-0-0---------||


=========================================================================
=========================================================================

This is hte interlude part that has the feeling of half time. It leads right
into the solo below:


                  H.           E  E     H.           E  E
-------|-------|---------------------|---------------------|
-------|-------|---------------------|---------------------|
-------|-------|------------------2--|--L---------------0--|
-------|-------|---------------0-----|---------------0-----|
-------|-------|---------------------|---------------------|
-------|-------|---------------------|---------------------|


                                                              PM PM
  H.           E  E     H.           E  E     H.           E  S  S
---------------------|---------------------|------------------------|
---------------------|---------------------|------------------------|
--L---------------4--|--L---------------2--|--L---------------------|
---------------0-----|---------------0-----|------------------------|
---------------------|---------------------|------------------3--3--|
---------------------|---------------------|------------------------|


  PM              PM PM    PM              PM PM
  E  H.           S  S     E  H.           S  S     E  H.           E
------------------------|------------------------|---------------------|
------------------------|------------------------|---------------------|
------------------------|------------------------|---------------------|
-----5------------------|------------------------|---------------------|
--3---------------------|-----5------------------|---------------------|
------------------0--0--|--5---------------0--0--|--0--0------------L--|


                                        PM    PM              PM
  H.           E  E     E  H.           E     E  H.           E
---------------------|---------------------|---------------------|
---------------------|---------------------|---------------------|
---------------------|-----2------------2--|-----0------------0--|
------------------0--|--0------------------|--0------------------|
---------------------|---------------------|---------------------|
--L------------------|---------------------|---------------------|


  E  H.           E     E  H        Q     S S    E  H.           E
---------------------|------------------------|---------------------|
---------------------|------------------------|---------------------|
-----4------------L--|-----2--------2\--------|---------------------|
--0------------------|--0---------------------|-----5------------L--|
---------------------|--------------------3-3-|--3------------------|
---------------------|------------------------|---------------------|


                  PM PM
  E  H.           S  S     E  H.           E     H.            E  E
------------------------|---------------------|----------------------|
------------------------|---------------------|----------------------|
------------------------|---------------------|-------------------2--|
------------------------|---------------------|----------------------|
-----5------------------|---------------------|---------------/5-----|
--5---------------0--0--|--0--0------------L--|--0-------------------|


  H.           E  E     H.           E  E     H.           E  E
---------------------|---------------------|---------------------|
---------------------|---------------------|---------------------|
--L---------------0--|--L---------------4--|--L---------------2--|
---------------0-----|---------------0-----|---------------0-----|
---------------------|---------------------|---------------------|
---------------------|---------------------|---------------------|


                  PM PM    PM              PM PM    PM              PM PM
  H.           E  S  S     E  H.           S  S     E  H.           S  S
------------------------|------------------------|------------------------|
------------------------|------------------------|------------------------|
--L---------------------|------------------------|------------------------|
------------------------|-----5------------------|------------------------|
------------------3--3--|--3---------------------|-----5------------------|
------------------------|------------------0--0--|--5---------------0--0--|


  E  H.           E     W                   H        H
---------------------|-------------------|--------------------|
---------------------|-------------------|--------------------|
---------------------|-------------------|--------------------|
---------------------|-------------------|--------------------|
---------------------|-------------------|--------------------|
--0--0------------L--|--L----------------|--L-----------------|


  H.            E  E     H.           E  E     H.           E  E
----------------------|---------------------|---------------------|
----------------------|---------------------|---------------------|
-------------------2--|--L---------------0--|--L---------------4--|
----------------------|---------------0-----|---------------0-----|
---------------/5-----|---------------------|---------------------|
--0-------------------|---------------------|---------------------|


                                        PM PM    PM              PM PM
  H.           E  E     H.           E  S  S     E  H.           S  S
---------------------|------------------------|------------------------|
---------------------|------------------------|------------------------|
--L---------------2--|--L---------------------|------------------------|
---------------0-----|------------------------|-----5------------------|
---------------------|------------------3--3--|--3---------------------|
---------------------|------------------------|------------------0--0--|


  PM                    PM PM PM PM PM PM PM PM    PM PM PM PM PM PM PM
  E  H.           E     E  E  E  E  E  E  E  E     E  E  E  E  E  E  E   E
---------------------|--------------------------|----------------------------|
---------------------|--------------------------|----------------------------|
---------------------|--------------------------|-----------------------12b--|
---------------------|--------------------------|----------------------------|
-----5---------------|--------------------------|----------------------------|
--5------------------|--0--0--0--0--0--0--0--0--|--0--0--0--0--0--0--0-------|


   S  S   S  S  S  S   S  S   S  S  S  S   S  S   S  S
------------10-10---------------10-10---------------10-|
--10-----10-10-10-----10-----10-10-10-----10-----10-10-|
-----12b----------12b----12b----------12b----12b-------|
-------------------------------------------------------|
-------------------------------------------------------|
-------------------------------------------------------|


   S   S  S  S  S   S  S  S  S   S  S  S  S   S  S  S
--10--------------------------------------------------|
--10--10-13-10-----10-13-10-----10-13-10-----10-13-10-|
--12b----------12b----------12b----------12b----------|
------------------------------------------------------|
------------------------------------------------------|
------------------------------------------------------|


   |---6--|   |---6--|  |------7------|   7  7
   S   S  S   S  S   S  S   S  S   S  S   S  S   T  T   T  T   T  T  T  T  S  S
---------------------------------------------------------------------------------|
------10-13p-10-----10-13p-10-----10-13p-10-----10-13p-10-----10-----------------|
--12b-----------12b-----------12b-----------12b-----------12b----13-12-10----12--|b
--------------------------------------------------------------------------12-----|
---------------------------------------------------------------------------------|
---------------------------------------------------------------------------------|


   E     S  S  S     S  Q      E    Q
-----------------------------------15b----|
-----------------------15~-----L\---------|
--12br--10----10-12g14--------------------|
-----------12-----------------------------|
------------------------------------------|
------------------------------------------|


   S     S  E   E    S     S  E   E    S     S  E
--15pbr-13-----15b--15pbr-13-----15b--15pbr-13-----|
-----------15----------------15----------------15--|
---------------------------------------------------|
---------------------------------------------------|
---------------------------------------------------|
---------------------------------------------------|


                  |--3--|
   E    E    E    S  S  S  Q.         E
--15b--15b--15b--13----13-----------------|
--------------------15----15brb-------L\--|
------------------------------------------|
------------------------------------------|
------------------------------------------|
------------------------------------------|


   |---3--|  |---3--|  |---3--|  |--3--|  |---3--|  |---3--|  |---3--|  |--3--|
   S   S  S  S  S   S  S   S  S  S  S  S  S   S  S  S  S   S  S   S  S  S  S  S
--17p-13----13---------------------------17p-13----13---------------------------|
---------17----17p-13-18p-13-13-15-13-----------17----17p-13-18p-13-13-15-13----|
--------------------------------------14-------------------------------------14-|
--------------------------------------------------------------------------------|
--------------------------------------------------------------------------------|
--------------------------------------------------------------------------------|


   |---3--|  |---3--|  |---3--|  |--3--|  |--3--|
   S   S  S  S  S   S  S   S  S  S  S  S  S  S  S  S  S  E      E
--17p-13----13-----------------------------------------------------|
---------17----17p-13-18p-13----15---------------------------------|
-----------------------------14----17-14-13-14-13-12----12brb--10--|
-----------------------------------------------------14------------|
-------------------------------------------------------------------|
-------------------------------------------------------------------|


   H.            Q
----------------------|-----|-------------------|-------------------|
----------------------|-----|-------------------|-------------------|
----------------------|-----|-------------------|-------------------|
--12b-----------------|-----|-------------------|-------------------|
----------------------|-----|-------------------|-------------------|
----------------------|-----|-------------------|-------------------|











Duration Legend
---------------
W - whole
H - half
Q - quarter
E - 8th
S - 16th
T - 32nd
X - 64th
. - note dotted
|-n-|  - n-tuplets


Tablature Legend
----------------
L - tied note
x - dead note
g - grace note
(n) - ghost note
> - accentuded note
NH - natural harmonic
AH - artificial harmonic
TH - tapped harmonic
SH - semi harmonic
PH - pitch harmonic
h - hammer on
p - pull off
b - bend
br - bendRelease
pb - preBend
pbr - preBendRelease
brb - bendReleaseBend
\n/ - tremolo bar dip
\n - tremolo bar dive
-/n - tremolo bar Release up
/n\ - tremolo bar inverted dip
/n - tremolo bar return
-\n - tremolo bar Release down
S - shift slide
s - legato slide
/ -  slide into from below or out of upwards
\ -  slide into from above or out of downwards
~ - vibrato
W - wide vibrato
tr - trill
TP - tremolo picking
T - tapping
S - slap
P - pop
< - fade in
^ - brush up
v - brush down
Tap to rate this tab
# A B C D E F G H I J K L M N O P Q R S T U V W X Y Z